ISO-10303-21;
HEADER;
FILE_DESCRIPTION (( 'STEP AP203' ),
    '1' );
FILE_NAME ('30299.step',
    '2021-11-12T06:57:01',
    ( '' ),
    ( '' ),
    'SwSTEP 2.0',
    'SolidWorks 2019',
    '' );
FILE_SCHEMA (( 'CONFIG_CONTROL_DESIGN' ));
ENDSEC;

DATA;
#1 = AXIS2_PLACEMENT_3D ( 'NONE', #107, #91, #148 ) ;
#2 = VERTEX_POINT ( 'NONE', #152 ) ;
#3 = CARTESIAN_POINT ( 'NONE',  ( 0.0000000000000000000, 0.0000000000000000000, 0.0000000000000000000 ) ) ;
#4 = SECURITY_CLASSIFICATION ( '', '', #39 ) ;
#5 = FACE_OUTER_BOUND ( 'NONE', #181, .T. ) ;
#6 = CARTESIAN_POINT ( 'NONE',  ( 2.793185071074506684E-14, 2.249639673992785317E-32, 8.000000000000000000 ) ) ;
#7 = ADVANCED_FACE ( 'NONE', ( #147, #186 ), #201, .T. ) ;
#8 = DIRECTION ( 'NONE',  ( 0.0000000000000000000, 1.000000000000000000, 0.0000000000000000000 ) ) ;
#9 = PERSON_AND_ORGANIZATION_ROLE ( 'design_supplier' ) ;
#10 = EDGE_LOOP ( 'NONE', ( #29 ) ) ;
#11 = DATE_TIME_ROLE ( 'creation_date' ) ;
#12 = DIRECTION ( 'NONE',  ( -3.491481338843133355E-15, 1.224646799147353207E-16, -1.000000000000000000 ) ) ;
#13 = CC_DESIGN_PERSON_AND_ORGANIZATION_ASSIGNMENT ( #173, #156, ( #16 ) ) ;
#14 = PERSON_AND_ORGANIZATION_ROLE ( 'creator' ) ;
#15 = ORIENTED_EDGE ( 'NONE', *, *, #120, .T. ) ;
#16 = PRODUCT ( '30299', '30299', '', ( #226 ) ) ;
#17 = CIRCLE ( 'NONE', #46, 1.999999999999999112 ) ;
#18 = FACE_OUTER_BOUND ( 'NONE', #54, .T. ) ;
#19 = CARTESIAN_POINT ( 'NONE',  ( 2.793185071074506684E-14, 2.249639673992785317E-32, 8.000000000000000000 ) ) ;
#20 = APPROVAL ( #162, 'UNSPECIFIED' ) ;
#21 = LOCAL_TIME ( 7, 57, 1.000000000000000000, #182 ) ;
#22 = EDGE_CURVE ( 'NONE', #2, #2, #17, .T. ) ;
#23 = CARTESIAN_POINT ( 'NONE',  ( 0.0000000000000000000, 0.0000000000000000000, 0.0000000000000000000 ) ) ;
#24 = DIRECTION ( 'NONE',  ( 3.491481338843133355E-15, -1.223397583181748052E-16, 1.000000000000000000 ) ) ;
#25 = AXIS2_PLACEMENT_3D ( 'NONE', #6, #191, #79 ) ;
#26 = CARTESIAN_POINT ( 'NONE',  ( 4.145429978967846027E-14, 2.999999999999993339, 11.87298334620740725 ) ) ;
#27 = PRODUCT_RELATED_PRODUCT_CATEGORY ( 'detail', '', ( #16 ) ) ;
#28 = DESIGN_CONTEXT ( 'detailed design', #78, 'design' ) ;
#29 = ORIENTED_EDGE ( 'NONE', *, *, #22, .F. ) ;
#30 = CLOSED_SHELL ( 'NONE', ( #158, #150, #71, #59 ) ) ;
#31 = DIRECTION ( 'NONE',  ( 3.491481338843133355E-15, -1.223397583181748052E-16, 1.000000000000000000 ) ) ;
#32 = DIRECTION ( 'NONE',  ( -3.491481338843133355E-15, 1.224646799147353207E-16, -1.000000000000000000 ) ) ;
#33 = COORDINATED_UNIVERSAL_TIME_OFFSET ( 1, 0, .AHEAD. ) ;
#34 = CARTESIAN_POINT ( 'NONE',  ( -4.731839565957903391E-32, 0.0000000000000000000, -1.355252715606880543E-17 ) ) ;
#35 = CALENDAR_DATE ( 2021, 12, 11 ) ;
#36 = DIRECTION ( 'NONE',  ( 0.0000000000000000000, -1.000000000000000000, 0.0000000000000000000 ) ) ;
#37 = PRODUCT_DEFINITION_SHAPE ( 'NONE', 'NONE',  #42 ) ;
#38 = AXIS2_PLACEMENT_3D ( 'NONE', #64, #44, #62 ) ;
#39 = SECURITY_CLASSIFICATION_LEVEL ( 'unclassified' ) ;
#40 = DIRECTION ( 'NONE',  ( 3.491481338843133355E-15, -1.224646799147353207E-16, 1.000000000000000000 ) ) ;
#41 = AXIS2_PLACEMENT_3D ( 'NONE', #116, #55, #36 ) ;
#42 = PRODUCT_DEFINITION ( 'UNKNOWN', '', #165, #28 ) ;
#43 = VERTEX_POINT ( 'NONE', #194 ) ;
#44 = DIRECTION ( 'NONE',  ( 3.491481338843133355E-15, -1.223397583181748052E-16, 1.000000000000000000 ) ) ;
#45 = VERTEX_POINT ( 'NONE', #81 ) ;
#46 = AXIS2_PLACEMENT_3D ( 'NONE', #83, #31, #177 ) ;
#47 = CC_DESIGN_DATE_AND_TIME_ASSIGNMENT ( #215, #140, ( #4 ) ) ;
#48 = PLANE ( 'NONE',  #25 ) ;
#49 = ADVANCED_BREP_SHAPE_REPRESENTATION ( '30299', ( #160, #159, #243 ), #149 ) ;
#50 = CARTESIAN_POINT ( 'NONE',  ( -6.413747168845438786E-31, 2.249639673992786412E-32, -1.836970198721029934E-16 ) ) ;
#51 = CARTESIAN_POINT ( 'NONE',  ( 1.745740669421566173E-13, -6.123233995736764507E-15, 49.99999999999998579 ) ) ;
#52 = PERSON_AND_ORGANIZATION ( #121, #178 ) ;
#53 = CC_DESIGN_APPROVAL ( #20, ( #165 ) ) ;
#54 = EDGE_LOOP ( 'NONE', ( #234 ) ) ;
#55 = DIRECTION ( 'NONE',  ( 3.491481338843133355E-15, -1.223397583181748052E-16, 1.000000000000000000 ) ) ;
#56 = DATE_AND_TIME ( #35, #110 ) ;
#57 = ORIENTED_EDGE ( 'NONE', *, *, #134, .T. ) ;
#58 = PLANE ( 'NONE',  #192 ) ;
#59 = ADVANCED_FACE ( 'NONE', ( #198 ), #213, .T. ) ;
#60 = CONICAL_SURFACE ( 'NONE', #113, 2.000000000000000000, 0.7853981633974495002 ) ;
#61 = FACE_OUTER_BOUND ( 'NONE', #66, .T. ) ;
#62 = DIRECTION ( 'NONE',  ( -4.330481597005440263E-31, -1.000000000000000000, -1.223397583181748052E-16 ) ) ;
#63 = CARTESIAN_POINT ( 'NONE',  ( 1.899999999999999689, 0.0000000000000000000, -6.647367070958021392E-15 ) ) ;
#64 = CARTESIAN_POINT ( 'NONE',  ( 2.793185071074506053E-14, -1.734723475976807094E-15, 7.999999999999998224 ) ) ;
#65 = AXIS2_PLACEMENT_3D ( 'NONE', #130, #112, #205 ) ;
#66 = EDGE_LOOP ( 'NONE', ( #195 ) ) ;
#67 = CALENDAR_DATE ( 2021, 12, 11 ) ;
#68 = ORIENTED_EDGE ( 'NONE', *, *, #129, .F. ) ;
#69 = EDGE_LOOP ( 'NONE', ( #73 ) ) ;
#70 = DATE_AND_TIME ( #180, #21 ) ;
#71 = ADVANCED_FACE ( 'NONE', ( #103, #232 ), #60, .T. ) ;
#72 = EDGE_LOOP ( 'NONE', ( #114 ) ) ;
#73 = ORIENTED_EDGE ( 'NONE', *, *, #138, .F. ) ;
#74 = ADVANCED_FACE ( 'NONE', ( #219, #18 ), #106, .T. ) ;
#75 = CYLINDRICAL_SURFACE ( 'NONE', #87, 1.999999999999999556 ) ;
#76 = APPROVAL_PERSON_ORGANIZATION ( #96, #208, #82 ) ;
#77 = AXIS2_PLACEMENT_3D ( 'NONE', #51, #118, #8 ) ;
#78 = APPLICATION_CONTEXT ( 'configuration controlled 3d designs of mechanical parts and assemblies' ) ;
#79 = DIRECTION ( 'NONE',  ( -4.275831445896958607E-31, -1.000000000000000000, -1.224646799147353207E-16 ) ) ;
#80 = CARTESIAN_POINT ( 'NONE',  ( 1.745740669421566425E-13, 8.677665382962492735E-31, 49.99999999999999289 ) ) ;
#81 = CARTESIAN_POINT ( 'NONE',  ( 2.793185071074506053E-14, -2.000000000000000000, 7.999999999999998224 ) ) ;
#82 = APPROVAL_ROLE ( '' ) ;
#83 = CARTESIAN_POINT ( 'NONE',  ( 2.793185071074506053E-14, -9.787180665453982442E-16, 7.999999999999998224 ) ) ;
#84 = APPROVAL_STATUS ( 'not_yet_approved' ) ;
#85 = EDGE_LOOP ( 'NONE', ( #57 ) ) ;
#86 = PERSON_AND_ORGANIZATION ( #121, #178 ) ;
#87 = AXIS2_PLACEMENT_3D ( 'NONE', #3, #24, #190 ) ;
#88 = CARTESIAN_POINT ( 'NONE',  ( 0.0000000000000000000, 0.0000000000000000000, 0.0000000000000000000 ) ) ;
#89 = CALENDAR_DATE ( 2021, 12, 11 ) ;
#90 = CC_DESIGN_PERSON_AND_ORGANIZATION_ASSIGNMENT ( #52, #9, ( #165 ) ) ;
#91 = DIRECTION ( 'NONE',  ( -3.491481338843133355E-15, 1.224646799147353207E-16, -1.000000000000000000 ) ) ;
#92 = CC_DESIGN_PERSON_AND_ORGANIZATION_ASSIGNMENT ( #86, #14, ( #165 ) ) ;
#93 = CC_DESIGN_PERSON_AND_ORGANIZATION_ASSIGNMENT ( #123, #115, ( #4 ) ) ;
#94 = DIRECTION ( 'NONE',  ( 0.0000000000000000000, 0.0000000000000000000, 1.000000000000000000 ) ) ;
#95 = CLOSED_SHELL ( 'NONE', ( #7, #74, #193, #222, #175 ) ) ;
#96 = PERSON_AND_ORGANIZATION ( #121, #178 ) ;
#97 =( LENGTH_UNIT ( ) NAMED_UNIT ( * ) SI_UNIT ( .MILLI., .METRE. ) );
#98 = DIRECTION ( 'NONE',  ( 1.000000000000000000, 0.0000000000000000000, -3.491481338843133355E-15 ) ) ;
#99 = PERSON_AND_ORGANIZATION ( #121, #178 ) ;
#100 = AXIS2_PLACEMENT_3D ( 'NONE', #242, #221, #168 ) ;
#101 = APPROVAL ( #84, 'UNSPECIFIED' ) ;
#102 = ORIENTED_EDGE ( 'NONE', *, *, #239, .T. ) ;
#103 = FACE_BOUND ( 'NONE', #240, .T. ) ;
#104 = DIRECTION ( 'NONE',  ( 3.491481338843133355E-15, -0.0000000000000000000, 1.000000000000000000 ) ) ;
#105 = APPROVAL_ROLE ( '' ) ;
#106 = CONICAL_SURFACE ( 'NONE', #128, 2.999999999999991562, 0.7853981633974482790 ) ;
#107 = CARTESIAN_POINT ( 'NONE',  ( 1.724791781388508004E-13, -6.049755187787925154E-15, 49.39999999999999858 ) ) ;
#108 = APPROVAL_ROLE ( '' ) ;
#109 = FACE_OUTER_BOUND ( 'NONE', #122, .T. ) ;
#110 = LOCAL_TIME ( 7, 57, 1.000000000000000000, #238 ) ;
#111 = CC_DESIGN_SECURITY_CLASSIFICATION ( #4, ( #165 ) ) ;
#112 = DIRECTION ( 'NONE',  ( 3.491481338843133355E-15, -0.0000000000000000000, 1.000000000000000000 ) ) ;
#113 = AXIS2_PLACEMENT_3D ( 'NONE', #139, #196, #211 ) ;
#114 = ORIENTED_EDGE ( 'NONE', *, *, #138, .T. ) ;
#115 = PERSON_AND_ORGANIZATION_ROLE ( 'classification_officer' ) ;
#116 = CARTESIAN_POINT ( 'NONE',  ( 2.793185071074506053E-14, -9.787180665453982442E-16, 7.999999999999998224 ) ) ;
#117 = APPROVAL_PERSON_ORGANIZATION ( #220, #20, #105 ) ;
#118 = DIRECTION ( 'NONE',  ( -3.491481338843133355E-15, 1.224646799147353207E-16, -1.000000000000000000 ) ) ;
#119 = LOCAL_TIME ( 7, 57, 1.000000000000000000, #212 ) ;
#120 = EDGE_CURVE ( 'NONE', #43, #43, #151, .T. ) ;
#121 = PERSON ( 'UNSPECIFIED', 'UNSPECIFIED', 'UNSPECIFIED', ('UNSPECIFIED'), ('UNSPECIFIED'), ('UNSPECIFIED') ) ;
#122 = EDGE_LOOP ( 'NONE', ( #179 ) ) ;
#123 = PERSON_AND_ORGANIZATION ( #121, #178 ) ;
#124 = EDGE_LOOP ( 'NONE', ( #145 ) ) ;
#125 = CALENDAR_DATE ( 2021, 12, 11 ) ;
#126 = DIRECTION ( 'NONE',  ( -4.275831445896958607E-31, -1.000000000000000000, -1.224646799147353207E-16 ) ) ;
#127 = EDGE_CURVE ( 'NONE', #45, #45, #144, .T. ) ;
#128 = AXIS2_PLACEMENT_3D ( 'NONE', #166, #12, #214 ) ;
#129 = EDGE_CURVE ( 'NONE', #229, #229, #228, .T. ) ;
#130 = CARTESIAN_POINT ( 'NONE',  ( 3.491481338843133355E-16, 0.0000000000000000000, 0.1000000000000000056 ) ) ;
#131 = AXIS2_PLACEMENT_3D ( 'NONE', #80, #231, #207 ) ;
#132 = CC_DESIGN_APPROVAL ( #101, ( #4 ) ) ;
#133 =( NAMED_UNIT ( * ) PLANE_ANGLE_UNIT ( ) SI_UNIT ( $, .RADIAN. ) );
#134 = EDGE_CURVE ( 'NONE', #157, #157, #223, .T. ) ;
#135 = APPLICATION_PROTOCOL_DEFINITION ( 'international standard', 'config_control_design', 1994, #78 ) ;
#136 = VERTEX_POINT ( 'NONE', #210 ) ;
#137 = TOROIDAL_SURFACE ( 'NONE', #38, 10.00000000000000000, 8.000000000000000000 ) ;
#138 = EDGE_CURVE ( 'NONE', #225, #225, #172, .T. ) ;
#139 = CARTESIAN_POINT ( 'NONE',  ( 3.491481338843133355E-16, 0.0000000000000000000, 0.1000000000000000056 ) ) ;
#140 = DATE_TIME_ROLE ( 'classification_date' ) ;
#141 = EDGE_LOOP ( 'NONE', ( #163 ) ) ;
#142 = DIRECTION ( 'NONE',  ( 4.275831445896958607E-31, 1.000000000000000000, 1.224646799147353207E-16 ) ) ;
#143 = DATE_AND_TIME ( #125, #119 ) ;
#144 = CIRCLE ( 'NONE', #41, 1.999999999999999112 ) ;
#145 = ORIENTED_EDGE ( 'NONE', *, *, #239, .F. ) ;
#146 = SHAPE_DEFINITION_REPRESENTATION ( #37, #49 ) ;
#147 = FACE_OUTER_BOUND ( 'NONE', #85, .T. ) ;
#148 = DIRECTION ( 'NONE',  ( 0.0000000000000000000, 1.000000000000000000, 0.0000000000000000000 ) ) ;
#149 =( GEOMETRIC_REPRESENTATION_CONTEXT ( 3 ) GLOBAL_UNCERTAINTY_ASSIGNED_CONTEXT ( ( #218 ) ) GLOBAL_UNIT_ASSIGNED_CONTEXT ( ( #97, #133, #176 ) ) REPRESENTATION_CONTEXT ( 'NONE', 'WORKASPACE' ) );
#150 = ADVANCED_FACE ( 'NONE', ( #109 ), #58, .T. ) ;
#151 = CIRCLE ( 'NONE', #77, 2.400000000000002132 ) ;
#152 = CARTESIAN_POINT ( 'NONE',  ( 2.793185071074506053E-14, -2.000000000000000000, 7.999999999999998224 ) ) ;
#153 = APPLICATION_PROTOCOL_DEFINITION ( 'international standard', 'config_control_design', 1994, #227 ) ;
#154 = LOCAL_TIME ( 7, 57, 1.000000000000000000, #202 ) ;
#155 = PLANE ( 'NONE',  #131 ) ;
#156 = PERSON_AND_ORGANIZATION_ROLE ( 'design_owner' ) ;
#157 = VERTEX_POINT ( 'NONE', #230 ) ;
#158 = ADVANCED_FACE ( 'NONE', ( #203, #188 ), #75, .T. ) ;
#159 = MANIFOLD_SOLID_BREP ( 'Corps-Déplacer/Copier1[2]', #30 ) ;
#160 = MANIFOLD_SOLID_BREP ( 'Corps-Déplacer/Copier1[1]', #95 ) ;
#161 = EDGE_LOOP ( 'NONE', ( #102 ) ) ;
#162 = APPROVAL_STATUS ( 'not_yet_approved' ) ;
#163 = ORIENTED_EDGE ( 'NONE', *, *, #127, .T. ) ;
#164 = ORIENTED_EDGE ( 'NONE', *, *, #129, .T. ) ;
#165 = PRODUCT_DEFINITION_FORMATION_WITH_SPECIFIED_SOURCE ( 'ANY', '', #16, .NOT_KNOWN. ) ;
#166 = CARTESIAN_POINT ( 'NONE',  ( 1.724791781388508004E-13, -6.049755187787925154E-15, 49.39999999999999858 ) ) ;
#167 = PERSON_AND_ORGANIZATION ( #121, #178 ) ;
#168 = DIRECTION ( 'NONE',  ( 0.0000000000000000000, 1.000000000000000000, 0.0000000000000000000 ) ) ;
#169 = CIRCLE ( 'NONE', #65, 2.000000000000000000 ) ;
#170 = FACE_OUTER_BOUND ( 'NONE', #141, .T. ) ;
#171 = DIRECTION ( 'NONE',  ( 1.000000000000000000, 0.0000000000000000000, 0.0000000000000000000 ) ) ;
#172 = CIRCLE ( 'NONE', #100, 2.999999999999995559 ) ;
#173 = PERSON_AND_ORGANIZATION ( #121, #178 ) ;
#174 = FACE_OUTER_BOUND ( 'NONE', #69, .T. ) ;
#175 = ADVANCED_FACE ( 'NONE', ( #61 ), #48, .F. ) ;
#176 =( NAMED_UNIT ( * ) SI_UNIT ( $, .STERADIAN. ) SOLID_ANGLE_UNIT ( ) );
#177 = DIRECTION ( 'NONE',  ( 0.0000000000000000000, -1.000000000000000000, 0.0000000000000000000 ) ) ;
#178 = ORGANIZATION ( 'UNSPECIFIED', 'UNSPECIFIED', '' ) ;
#179 = ORIENTED_EDGE ( 'NONE', *, *, #22, .T. ) ;
#180 = CALENDAR_DATE ( 2021, 12, 11 ) ;
#181 = EDGE_LOOP ( 'NONE', ( #216 ) ) ;
#182 = COORDINATED_UNIVERSAL_TIME_OFFSET ( 1, 0, .AHEAD. ) ;
#183 = EDGE_LOOP ( 'NONE', ( #68 ) ) ;
#184 = PERSON_AND_ORGANIZATION_ROLE ( 'creator' ) ;
#185 = AXIS2_PLACEMENT_3D ( 'NONE', #50, #200, #142 ) ;
#186 = FACE_OUTER_BOUND ( 'NONE', #72, .T. ) ;
#187 = APPROVAL_DATE_TIME ( #143, #101 ) ;
#188 = FACE_OUTER_BOUND ( 'NONE', #161, .T. ) ;
#189 = APPROVAL_PERSON_ORGANIZATION ( #167, #101, #108 ) ;
#190 = DIRECTION ( 'NONE',  ( -4.271469831664863477E-31, -1.000000000000000000, -1.223397583181748052E-16 ) ) ;
#191 = DIRECTION ( 'NONE',  ( 3.491481338843133355E-15, -1.224646799147353207E-16, 1.000000000000000000 ) ) ;
#192 = AXIS2_PLACEMENT_3D ( 'NONE', #19, #40, #126 ) ;
#193 = ADVANCED_FACE ( 'NONE', ( #5 ), #155, .F. ) ;
#194 = CARTESIAN_POINT ( 'NONE',  ( 1.745740669421566173E-13, 2.399999999999995914, 49.99999999999998579 ) ) ;
#195 = ORIENTED_EDGE ( 'NONE', *, *, #127, .F. ) ;
#196 = DIRECTION ( 'NONE',  ( 3.491481338843133355E-15, -0.0000000000000000000, 1.000000000000000000 ) ) ;
#197 = APPROVAL_STATUS ( 'not_yet_approved' ) ;
#198 = FACE_OUTER_BOUND ( 'NONE', #183, .T. ) ;
#199 = APPROVAL_DATE_TIME ( #70, #20 ) ;
#200 = DIRECTION ( 'NONE',  ( -3.491481338843133355E-15, 1.224646799147353207E-16, -1.000000000000000000 ) ) ;
#201 = CYLINDRICAL_SURFACE ( 'NONE', #237, 2.999999999999995559 ) ;
#202 = COORDINATED_UNIVERSAL_TIME_OFFSET ( 1, 0, .AHEAD. ) ;
#203 = FACE_OUTER_BOUND ( 'NONE', #10, .T. ) ;
#204 = LOCAL_TIME ( 7, 57, 1.000000000000000000, #33 ) ;
#205 = DIRECTION ( 'NONE',  ( 1.000000000000000000, 0.0000000000000000000, -3.489775742687717397E-15 ) ) ;
#206 = CC_DESIGN_APPROVAL ( #208, ( #42 ) ) ;
#207 = DIRECTION ( 'NONE',  ( 4.275831445896958607E-31, 1.000000000000000000, 1.224646799147353207E-16 ) ) ;
#208 = APPROVAL ( #197, 'UNSPECIFIED' ) ;
#209 = AXIS2_PLACEMENT_3D ( 'NONE', #34, #104, #98 ) ;
#210 = CARTESIAN_POINT ( 'NONE',  ( 2.000000000000000444, 0.0000000000000000000, 0.09999999999999302502 ) ) ;
#211 = DIRECTION ( 'NONE',  ( 1.000000000000000000, 0.0000000000000000000, -3.489775742687717397E-15 ) ) ;
#212 = COORDINATED_UNIVERSAL_TIME_OFFSET ( 1, 0, .AHEAD. ) ;
#213 = PLANE ( 'NONE',  #185 ) ;
#214 = DIRECTION ( 'NONE',  ( 0.0000000000000000000, 1.000000000000000000, 0.0000000000000000000 ) ) ;
#215 = DATE_AND_TIME ( #67, #204 ) ;
#216 = ORIENTED_EDGE ( 'NONE', *, *, #120, .F. ) ;
#217 = APPROVAL_DATE_TIME ( #241, #208 ) ;
#218 = UNCERTAINTY_MEASURE_WITH_UNIT (LENGTH_MEASURE( 1.000000000000000082E-05 ), #97, 'distance_accuracy_value', 'NONE');
#219 = FACE_BOUND ( 'NONE', #236, .T. ) ;
#220 = PERSON_AND_ORGANIZATION ( #121, #178 ) ;
#221 = DIRECTION ( 'NONE',  ( 3.491481338843133355E-15, -1.223397583181748052E-16, 1.000000000000000000 ) ) ;
#222 = ADVANCED_FACE ( 'NONE', ( #174, #170 ), #137, .F. ) ;
#223 = CIRCLE ( 'NONE', #1, 2.999999999999991562 ) ;
#224 = CC_DESIGN_DATE_AND_TIME_ASSIGNMENT ( #56, #11, ( #42 ) ) ;
#225 = VERTEX_POINT ( 'NONE', #26 ) ;
#226 = MECHANICAL_CONTEXT ( 'NONE', #227, 'mechanical' ) ;
#227 = APPLICATION_CONTEXT ( 'configuration controlled 3d designs of mechanical parts and assemblies' ) ;
#228 = CIRCLE ( 'NONE', #209, 1.899999999999999689 ) ;
#229 = VERTEX_POINT ( 'NONE', #63 ) ;
#230 = CARTESIAN_POINT ( 'NONE',  ( 1.724791781388508004E-13, 2.999999999999985345, 49.39999999999999858 ) ) ;
#231 = DIRECTION ( 'NONE',  ( -3.491481338843133355E-15, 1.224646799147353207E-16, -1.000000000000000000 ) ) ;
#232 = FACE_OUTER_BOUND ( 'NONE', #124, .T. ) ;
#233 = CC_DESIGN_PERSON_AND_ORGANIZATION_ASSIGNMENT ( #99, #184, ( #42 ) ) ;
#234 = ORIENTED_EDGE ( 'NONE', *, *, #134, .F. ) ;
#235 = DIRECTION ( 'NONE',  ( 4.275831445896959482E-31, 1.000000000000000000, 1.224646799147353207E-16 ) ) ;
#236 = EDGE_LOOP ( 'NONE', ( #15 ) ) ;
#237 = AXIS2_PLACEMENT_3D ( 'NONE', #88, #32, #235 ) ;
#238 = COORDINATED_UNIVERSAL_TIME_OFFSET ( 1, 0, .AHEAD. ) ;
#239 = EDGE_CURVE ( 'NONE', #136, #136, #169, .T. ) ;
#240 = EDGE_LOOP ( 'NONE', ( #164 ) ) ;
#241 = DATE_AND_TIME ( #89, #154 ) ;
#242 = CARTESIAN_POINT ( 'NONE',  ( 4.145429978967846027E-14, -2.208543322522137393E-15, 11.87298334620740725 ) ) ;
#243 = AXIS2_PLACEMENT_3D ( 'NONE', #23, #94, #171 ) ;
ENDSEC;
END-ISO-10303-21;
