ISO-10303-21;
HEADER;
FILE_DESCRIPTION (( 'STEP AP203' ),
    '1' );
FILE_NAME ('30298.step',
    '2021-11-12T06:57:01',
    ( '' ),
    ( '' ),
    'SwSTEP 2.0',
    'SolidWorks 2019',
    '' );
FILE_SCHEMA (( 'CONFIG_CONTROL_DESIGN' ));
ENDSEC;

DATA;
#1 = DIRECTION ( 'NONE',  ( 0.0000000000000000000, 0.0000000000000000000, 1.000000000000000000 ) ) ;
#2 = PERSON_AND_ORGANIZATION_ROLE ( 'design_owner' ) ;
#3 = AXIS2_PLACEMENT_3D ( 'NONE', #130, #77, #203 ) ;
#4 = ADVANCED_FACE ( 'NONE', ( #57 ), #163, .F. ) ;
#5 = CC_DESIGN_SECURITY_CLASSIFICATION ( #113, ( #90 ) ) ;
#6 = DESIGN_CONTEXT ( 'detailed design', #25, 'design' ) ;
#7 = CARTESIAN_POINT ( 'NONE',  ( 2.094888803305879382E-14, -1.500000000000000888, 5.999999999999998224 ) ) ;
#8 = DIRECTION ( 'NONE',  ( 0.0000000000000000000, 1.000000000000000000, 0.0000000000000000000 ) ) ;
#9 = CALENDAR_DATE ( 2021, 12, 11 ) ;
#10 = ADVANCED_BREP_SHAPE_REPRESENTATION ( '30298', ( #94, #172, #47 ), #224 ) ;
#11 = DATE_TIME_ROLE ( 'classification_date' ) ;
#12 = CC_DESIGN_PERSON_AND_ORGANIZATION_ASSIGNMENT ( #79, #2, ( #234 ) ) ;
#13 = CIRCLE ( 'NONE', #196, 1.500000000000000222 ) ;
#14 = ORIENTED_EDGE ( 'NONE', *, *, #107, .F. ) ;
#15 = DIRECTION ( 'NONE',  ( 1.000000000000000000, 0.0000000000000000000, -3.491481338843133750E-15 ) ) ;
#16 = DIRECTION ( 'NONE',  ( 3.491481338843133355E-15, -1.223397583181748052E-16, 1.000000000000000000 ) ) ;
#17 = ORIENTED_EDGE ( 'NONE', *, *, #129, .T. ) ;
#18 = ORIENTED_EDGE ( 'NONE', *, *, #65, .T. ) ;
#19 = CARTESIAN_POINT ( 'NONE',  ( 3.723207298514673544E-14, 2.999999999999995115, 10.66368952654439894 ) ) ;
#20 = ADVANCED_FACE ( 'NONE', ( #51 ), #34, .T. ) ;
#21 = DIRECTION ( 'NONE',  ( -3.491481338843133355E-15, 1.224646799147353207E-16, -1.000000000000000000 ) ) ;
#22 = CARTESIAN_POINT ( 'NONE',  ( 2.094888803305879698E-14, 0.0000000000000000000, 5.999999999999999112 ) ) ;
#23 = FACE_OUTER_BOUND ( 'NONE', #197, .T. ) ;
#24 = SECURITY_CLASSIFICATION_LEVEL ( 'unclassified' ) ;
#25 = APPLICATION_CONTEXT ( 'configuration controlled 3d designs of mechanical parts and assemblies' ) ;
#26 = CALENDAR_DATE ( 2021, 12, 11 ) ;
#27 = TOROIDAL_SURFACE ( 'NONE', #104, 9.500000000000001776, 8.000000000000000000 ) ;
#28 = DATE_AND_TIME ( #120, #41 ) ;
#29 = EDGE_LOOP ( 'NONE', ( #70 ) ) ;
#30 = PERSON_AND_ORGANIZATION ( #149, #121 ) ;
#31 = CIRCLE ( 'NONE', #166, 2.999999999999991562 ) ;
#32 = DIRECTION ( 'NONE',  ( 0.0000000000000000000, -1.000000000000000000, 0.0000000000000000000 ) ) ;
#33 = ORIENTED_EDGE ( 'NONE', *, *, #82, .F. ) ;
#34 = PLANE ( 'NONE',  #35 ) ;
#35 = AXIS2_PLACEMENT_3D ( 'NONE', #58, #165, #54 ) ;
#36 = LOCAL_TIME ( 7, 57, 1.000000000000000000, #139 ) ;
#37 = FACE_OUTER_BOUND ( 'NONE', #180, .T. ) ;
#38 = DIRECTION ( 'NONE',  ( 3.491481338843133355E-15, -1.223397583181748052E-16, 1.000000000000000000 ) ) ;
#39 = PLANE ( 'NONE',  #209 ) ;
#40 = CARTESIAN_POINT ( 'NONE',  ( 1.724791781388508004E-13, -6.049755187787925154E-15, 49.39999999999999858 ) ) ;
#41 = LOCAL_TIME ( 7, 57, 1.000000000000000000, #124 ) ;
#42 = DIRECTION ( 'NONE',  ( -3.491481338843133355E-15, 1.224646799147353207E-16, -1.000000000000000000 ) ) ;
#43 = VERTEX_POINT ( 'NONE', #225 ) ;
#44 = APPROVAL_DATE_TIME ( #81, #229 ) ;
#45 = CC_DESIGN_DATE_AND_TIME_ASSIGNMENT ( #102, #62, ( #207 ) ) ;
#46 = APPROVAL_ROLE ( '' ) ;
#47 = AXIS2_PLACEMENT_3D ( 'NONE', #168, #1, #136 ) ;
#48 = CC_DESIGN_PERSON_AND_ORGANIZATION_ASSIGNMENT ( #103, #63, ( #207 ) ) ;
#49 = ORIENTED_EDGE ( 'NONE', *, *, #56, .T. ) ;
#50 = PERSON_AND_ORGANIZATION_ROLE ( 'classification_officer' ) ;
#51 = FACE_OUTER_BOUND ( 'NONE', #83, .T. ) ;
#52 = AXIS2_PLACEMENT_3D ( 'NONE', #137, #170, #210 ) ;
#53 = FACE_OUTER_BOUND ( 'NONE', #243, .T. ) ;
#54 = DIRECTION ( 'NONE',  ( 4.275831445896958607E-31, 1.000000000000000000, 1.224646799147353207E-16 ) ) ;
#55 = AXIS2_PLACEMENT_3D ( 'NONE', #89, #127, #88 ) ;
#56 = EDGE_CURVE ( 'NONE', #167, #167, #13, .T. ) ;
#57 = FACE_OUTER_BOUND ( 'NONE', #144, .T. ) ;
#58 = CARTESIAN_POINT ( 'NONE',  ( -6.413747168845438786E-31, 2.249639673992786412E-32, -1.836970198721029934E-16 ) ) ;
#59 = VERTEX_POINT ( 'NONE', #111 ) ;
#60 =( NAMED_UNIT ( * ) SI_UNIT ( $, .STERADIAN. ) SOLID_ANGLE_UNIT ( ) );
#61 = ADVANCED_FACE ( 'NONE', ( #218, #37 ), #143, .T. ) ;
#62 = DATE_TIME_ROLE ( 'creation_date' ) ;
#63 = PERSON_AND_ORGANIZATION_ROLE ( 'creator' ) ;
#64 = COORDINATED_UNIVERSAL_TIME_OFFSET ( 1, 0, .AHEAD. ) ;
#65 = EDGE_CURVE ( 'NONE', #59, #59, #194, .T. ) ;
#66 = COORDINATED_UNIVERSAL_TIME_OFFSET ( 1, 0, .AHEAD. ) ;
#67 = EDGE_LOOP ( 'NONE', ( #133 ) ) ;
#68 = AXIS2_PLACEMENT_3D ( 'NONE', #222, #239, #109 ) ;
#69 = CALENDAR_DATE ( 2021, 12, 11 ) ;
#70 = ORIENTED_EDGE ( 'NONE', *, *, #129, .F. ) ;
#71 = APPROVAL_PERSON_ORGANIZATION ( #195, #229, #236 ) ;
#72 = CC_DESIGN_APPROVAL ( #229, ( #90 ) ) ;
#73 = CARTESIAN_POINT ( 'NONE',  ( 3.491481338843133355E-16, 0.0000000000000000000, 0.1000000000000000056 ) ) ;
#74 = FACE_OUTER_BOUND ( 'NONE', #154, .T. ) ;
#75 = UNCERTAINTY_MEASURE_WITH_UNIT (LENGTH_MEASURE( 1.000000000000000082E-05 ), #152, 'distance_accuracy_value', 'NONE');
#76 = ORIENTED_EDGE ( 'NONE', *, *, #82, .T. ) ;
#77 = DIRECTION ( 'NONE',  ( 3.491481338843133355E-15, -1.224646799147353207E-16, 1.000000000000000000 ) ) ;
#78 = DIRECTION ( 'NONE',  ( -4.332167647443742332E-31, -1.000000000000000000, -1.223397583181748052E-16 ) ) ;
#79 = PERSON_AND_ORGANIZATION ( #149, #121 ) ;
#80 = FACE_BOUND ( 'NONE', #215, .T. ) ;
#81 = DATE_AND_TIME ( #69, #227 ) ;
#82 = EDGE_CURVE ( 'NONE', #188, #188, #141, .T. ) ;
#83 = EDGE_LOOP ( 'NONE', ( #14 ) ) ;
#84 = APPROVAL_STATUS ( 'not_yet_approved' ) ;
#85 = EDGE_LOOP ( 'NONE', ( #177 ) ) ;
#86 = AXIS2_PLACEMENT_3D ( 'NONE', #73, #185, #161 ) ;
#87 = EDGE_CURVE ( 'NONE', #150, #150, #202, .T. ) ;
#88 = DIRECTION ( 'NONE',  ( 1.000000000000000000, 0.0000000000000000000, -3.487516988161706061E-15 ) ) ;
#89 = CARTESIAN_POINT ( 'NONE',  ( 3.491481338843133355E-16, 0.0000000000000000000, 0.1000000000000000056 ) ) ;
#90 = PRODUCT_DEFINITION_FORMATION_WITH_SPECIFIED_SOURCE ( 'ANY', '', #234, .NOT_KNOWN. ) ;
#91 = ORIENTED_EDGE ( 'NONE', *, *, #98, .T. ) ;
#92 = ADVANCED_FACE ( 'NONE', ( #181, #105 ), #158, .T. ) ;
#93 = EDGE_LOOP ( 'NONE', ( #200 ) ) ;
#94 = MANIFOLD_SOLID_BREP ( 'Corps-Déplacer/Copier1[1]', #169 ) ;
#95 = DIRECTION ( 'NONE',  ( 3.491481338843133355E-15, -1.223397583181748052E-16, 1.000000000000000000 ) ) ;
#96 = VERTEX_POINT ( 'NONE', #134 ) ;
#97 = CARTESIAN_POINT ( 'NONE',  ( 2.094888803305879382E-14, -1.500000000000000888, 5.999999999999998224 ) ) ;
#98 = EDGE_CURVE ( 'NONE', #96, #96, #189, .T. ) ;
#99 = FACE_OUTER_BOUND ( 'NONE', #182, .T. ) ;
#100 = COORDINATED_UNIVERSAL_TIME_OFFSET ( 1, 0, .AHEAD. ) ;
#101 = APPROVAL_PERSON_ORGANIZATION ( #155, #116, #46 ) ;
#102 = DATE_AND_TIME ( #160, #36 ) ;
#103 = PERSON_AND_ORGANIZATION ( #149, #121 ) ;
#104 = AXIS2_PLACEMENT_3D ( 'NONE', #22, #115, #78 ) ;
#105 = FACE_OUTER_BOUND ( 'NONE', #93, .T. ) ;
#106 = CARTESIAN_POINT ( 'NONE',  ( 2.094888803305879382E-14, -7.340385499090486338E-16, 5.999999999999998224 ) ) ;
#107 = EDGE_CURVE ( 'NONE', #43, #43, #118, .T. ) ;
#108 = DIRECTION ( 'NONE',  ( 4.275831445896959482E-31, 1.000000000000000000, 1.224646799147353207E-16 ) ) ;
#109 = DIRECTION ( 'NONE',  ( 0.0000000000000000000, 1.000000000000000000, 0.0000000000000000000 ) ) ;
#110 = CARTESIAN_POINT ( 'NONE',  ( 1.745740669421566173E-13, -6.123233995736764507E-15, 49.99999999999998579 ) ) ;
#111 = CARTESIAN_POINT ( 'NONE',  ( 1.745740669421566173E-13, 2.399999999999995914, 49.99999999999998579 ) ) ;
#112 = ADVANCED_FACE ( 'NONE', ( #53, #74 ), #162, .T. ) ;
#113 = SECURITY_CLASSIFICATION ( '', '', #24 ) ;
#114 = DIRECTION ( 'NONE',  ( 0.0000000000000000000, 1.000000000000000000, 0.0000000000000000000 ) ) ;
#115 = DIRECTION ( 'NONE',  ( 3.491481338843133355E-15, -1.223397583181748052E-16, 1.000000000000000000 ) ) ;
#116 = APPROVAL ( #178, 'UNSPECIFIED' ) ;
#117 = FACE_OUTER_BOUND ( 'NONE', #237, .T. ) ;
#118 = CIRCLE ( 'NONE', #179, 1.399999999999999689 ) ;
#119 = APPROVAL_STATUS ( 'not_yet_approved' ) ;
#120 = CALENDAR_DATE ( 2021, 12, 11 ) ;
#121 = ORGANIZATION ( 'UNSPECIFIED', 'UNSPECIFIED', '' ) ;
#122 = AXIS2_PLACEMENT_3D ( 'NONE', #204, #42, #114 ) ;
#123 = APPROVAL_PERSON_ORGANIZATION ( #232, #240, #176 ) ;
#124 = COORDINATED_UNIVERSAL_TIME_OFFSET ( 1, 0, .AHEAD. ) ;
#125 = CC_DESIGN_PERSON_AND_ORGANIZATION_ASSIGNMENT ( #175, #216, ( #90 ) ) ;
#126 = AXIS2_PLACEMENT_3D ( 'NONE', #164, #16, #219 ) ;
#127 = DIRECTION ( 'NONE',  ( 3.491481338843133355E-15, -0.0000000000000000000, 1.000000000000000000 ) ) ;
#128 = APPLICATION_CONTEXT ( 'configuration controlled 3d designs of mechanical parts and assemblies' ) ;
#129 = EDGE_CURVE ( 'NONE', #171, #171, #31, .T. ) ;
#130 = CARTESIAN_POINT ( 'NONE',  ( 2.094888803305880013E-14, 2.249639673992785317E-32, 6.000000000000000000 ) ) ;
#131 = EDGE_LOOP ( 'NONE', ( #159 ) ) ;
#132 = CLOSED_SHELL ( 'NONE', ( #61, #191, #92, #20 ) ) ;
#133 = ORIENTED_EDGE ( 'NONE', *, *, #56, .F. ) ;
#134 = CARTESIAN_POINT ( 'NONE',  ( 1.500000000000000444, 0.0000000000000000000, 0.09999999999999477363 ) ) ;
#135 = CC_DESIGN_APPROVAL ( #116, ( #113 ) ) ;
#136 = DIRECTION ( 'NONE',  ( 1.000000000000000000, 0.0000000000000000000, 0.0000000000000000000 ) ) ;
#137 = CARTESIAN_POINT ( 'NONE',  ( 2.094888803305880013E-14, 2.249639673992785317E-32, 6.000000000000000000 ) ) ;
#138 = APPROVAL_DATE_TIME ( #140, #116 ) ;
#139 = COORDINATED_UNIVERSAL_TIME_OFFSET ( 1, 0, .AHEAD. ) ;
#140 = DATE_AND_TIME ( #26, #183 ) ;
#141 = CIRCLE ( 'NONE', #68, 2.999999999999995559 ) ;
#142 = ADVANCED_FACE ( 'NONE', ( #80, #230 ), #226, .T. ) ;
#143 = CYLINDRICAL_SURFACE ( 'NONE', #126, 1.500000000000000000 ) ;
#144 = EDGE_LOOP ( 'NONE', ( #233 ) ) ;
#145 = CARTESIAN_POINT ( 'NONE',  ( 0.0000000000000000000, 0.0000000000000000000, 0.0000000000000000000 ) ) ;
#146 = ORIENTED_EDGE ( 'NONE', *, *, #65, .F. ) ;
#147 = AXIS2_PLACEMENT_3D ( 'NONE', #145, #184, #108 ) ;
#148 = DIRECTION ( 'NONE',  ( 0.0000000000000000000, -1.000000000000000000, 0.0000000000000000000 ) ) ;
#149 = PERSON ( 'UNSPECIFIED', 'UNSPECIFIED', 'UNSPECIFIED', ('UNSPECIFIED'), ('UNSPECIFIED'), ('UNSPECIFIED') ) ;
#150 = VERTEX_POINT ( 'NONE', #7 ) ;
#151 = ADVANCED_FACE ( 'NONE', ( #23, #190 ), #27, .F. ) ;
#152 =( LENGTH_UNIT ( ) NAMED_UNIT ( * ) SI_UNIT ( .MILLI., .METRE. ) );
#153 = PERSON_AND_ORGANIZATION ( #149, #121 ) ;
#154 = EDGE_LOOP ( 'NONE', ( #76 ) ) ;
#155 = PERSON_AND_ORGANIZATION ( #149, #121 ) ;
#156 = CC_DESIGN_DATE_AND_TIME_ASSIGNMENT ( #193, #11, ( #113 ) ) ;
#157 = PRODUCT_DEFINITION_SHAPE ( 'NONE', 'NONE',  #207 ) ;
#158 = CONICAL_SURFACE ( 'NONE', #55, 1.500000000000000000, 0.7853981633974495002 ) ;
#159 = ORIENTED_EDGE ( 'NONE', *, *, #87, .T. ) ;
#160 = CALENDAR_DATE ( 2021, 12, 11 ) ;
#161 = DIRECTION ( 'NONE',  ( 1.000000000000000000, 0.0000000000000000000, -3.487516988161706061E-15 ) ) ;
#162 = CYLINDRICAL_SURFACE ( 'NONE', #147, 2.999999999999995559 ) ;
#163 = PLANE ( 'NONE',  #3 ) ;
#164 = CARTESIAN_POINT ( 'NONE',  ( 0.0000000000000000000, 0.0000000000000000000, 0.0000000000000000000 ) ) ;
#165 = DIRECTION ( 'NONE',  ( -3.491481338843133355E-15, 1.224646799147353207E-16, -1.000000000000000000 ) ) ;
#166 = AXIS2_PLACEMENT_3D ( 'NONE', #40, #231, #8 ) ;
#167 = VERTEX_POINT ( 'NONE', #97 ) ;
#168 = CARTESIAN_POINT ( 'NONE',  ( 0.0000000000000000000, 0.0000000000000000000, 0.0000000000000000000 ) ) ;
#169 = CLOSED_SHELL ( 'NONE', ( #112, #142, #198, #151, #4 ) ) ;
#170 = DIRECTION ( 'NONE',  ( 3.491481338843133355E-15, -1.224646799147353207E-16, 1.000000000000000000 ) ) ;
#171 = VERTEX_POINT ( 'NONE', #212 ) ;
#172 = MANIFOLD_SOLID_BREP ( 'Corps-Déplacer/Copier1[2]', #132 ) ;
#173 = CC_DESIGN_APPROVAL ( #240, ( #207 ) ) ;
#174 = PERSON_AND_ORGANIZATION_ROLE ( 'design_supplier' ) ;
#175 = PERSON_AND_ORGANIZATION ( #149, #121 ) ;
#176 = APPROVAL_ROLE ( '' ) ;
#177 = ORIENTED_EDGE ( 'NONE', *, *, #107, .T. ) ;
#178 = APPROVAL_STATUS ( 'not_yet_approved' ) ;
#179 = AXIS2_PLACEMENT_3D ( 'NONE', #199, #241, #15 ) ;
#180 = EDGE_LOOP ( 'NONE', ( #91 ) ) ;
#181 = FACE_BOUND ( 'NONE', #85, .T. ) ;
#182 = EDGE_LOOP ( 'NONE', ( #49 ) ) ;
#183 = LOCAL_TIME ( 7, 57, 1.000000000000000000, #100 ) ;
#184 = DIRECTION ( 'NONE',  ( -3.491481338843133355E-15, 1.224646799147353207E-16, -1.000000000000000000 ) ) ;
#185 = DIRECTION ( 'NONE',  ( 3.491481338843133355E-15, -0.0000000000000000000, 1.000000000000000000 ) ) ;
#186 = DIRECTION ( 'NONE',  ( 4.275831445896958607E-31, 1.000000000000000000, 1.224646799147353207E-16 ) ) ;
#187 = PLANE ( 'NONE',  #52 ) ;
#188 = VERTEX_POINT ( 'NONE', #19 ) ;
#189 = CIRCLE ( 'NONE', #86, 1.500000000000000000 ) ;
#190 = FACE_OUTER_BOUND ( 'NONE', #131, .T. ) ;
#191 = ADVANCED_FACE ( 'NONE', ( #99 ), #187, .T. ) ;
#192 = APPLICATION_PROTOCOL_DEFINITION ( 'international standard', 'config_control_design', 1994, #25 ) ;
#193 = DATE_AND_TIME ( #9, #205 ) ;
#194 = CIRCLE ( 'NONE', #238, 2.400000000000002132 ) ;
#195 = PERSON_AND_ORGANIZATION ( #149, #121 ) ;
#196 = AXIS2_PLACEMENT_3D ( 'NONE', #106, #95, #148 ) ;
#197 = EDGE_LOOP ( 'NONE', ( #33 ) ) ;
#198 = ADVANCED_FACE ( 'NONE', ( #117 ), #39, .F. ) ;
#199 = CARTESIAN_POINT ( 'NONE',  ( -4.731839565957903391E-32, 0.0000000000000000000, -1.355252715606880543E-17 ) ) ;
#200 = ORIENTED_EDGE ( 'NONE', *, *, #98, .F. ) ;
#201 = CC_DESIGN_PERSON_AND_ORGANIZATION_ASSIGNMENT ( #30, #50, ( #113 ) ) ;
#202 = CIRCLE ( 'NONE', #235, 1.500000000000000222 ) ;
#203 = DIRECTION ( 'NONE',  ( -4.275831445896958607E-31, -1.000000000000000000, -1.224646799147353207E-16 ) ) ;
#204 = CARTESIAN_POINT ( 'NONE',  ( 1.724791781388508004E-13, -6.049755187787925154E-15, 49.39999999999999858 ) ) ;
#205 = LOCAL_TIME ( 7, 57, 1.000000000000000000, #64 ) ;
#206 =( NAMED_UNIT ( * ) PLANE_ANGLE_UNIT ( ) SI_UNIT ( $, .RADIAN. ) );
#207 = PRODUCT_DEFINITION ( 'UNKNOWN', '', #90, #6 ) ;
#208 = MECHANICAL_CONTEXT ( 'NONE', #128, 'mechanical' ) ;
#209 = AXIS2_PLACEMENT_3D ( 'NONE', #228, #21, #186 ) ;
#210 = DIRECTION ( 'NONE',  ( -4.275831445896958607E-31, -1.000000000000000000, -1.224646799147353207E-16 ) ) ;
#211 = PRODUCT_RELATED_PRODUCT_CATEGORY ( 'detail', '', ( #234 ) ) ;
#212 = CARTESIAN_POINT ( 'NONE',  ( 1.724791781388508004E-13, 2.999999999999985345, 49.39999999999999858 ) ) ;
#213 = APPROVAL_DATE_TIME ( #28, #240 ) ;
#214 = SHAPE_DEFINITION_REPRESENTATION ( #157, #10 ) ;
#215 = EDGE_LOOP ( 'NONE', ( #18 ) ) ;
#216 = PERSON_AND_ORGANIZATION_ROLE ( 'creator' ) ;
#217 = CC_DESIGN_PERSON_AND_ORGANIZATION_ASSIGNMENT ( #153, #174, ( #90 ) ) ;
#218 = FACE_OUTER_BOUND ( 'NONE', #67, .T. ) ;
#219 = DIRECTION ( 'NONE',  ( -4.271469831664863477E-31, -1.000000000000000000, -1.223397583181748052E-16 ) ) ;
#220 = DIRECTION ( 'NONE',  ( -3.491481338843133355E-15, 1.224646799147353207E-16, -1.000000000000000000 ) ) ;
#221 = DIRECTION ( 'NONE',  ( 0.0000000000000000000, 1.000000000000000000, 0.0000000000000000000 ) ) ;
#222 = CARTESIAN_POINT ( 'NONE',  ( 3.723207298514673544E-14, -5.705546495484447992E-16, 10.66368952654439894 ) ) ;
#223 = APPLICATION_PROTOCOL_DEFINITION ( 'international standard', 'config_control_design', 1994, #128 ) ;
#224 =( GEOMETRIC_REPRESENTATION_CONTEXT ( 3 ) GLOBAL_UNCERTAINTY_ASSIGNED_CONTEXT ( ( #75 ) ) GLOBAL_UNIT_ASSIGNED_CONTEXT ( ( #152, #206, #60 ) ) REPRESENTATION_CONTEXT ( 'NONE', 'WORKASPACE' ) );
#225 = CARTESIAN_POINT ( 'NONE',  ( 1.399999999999999689, 0.0000000000000000000, -4.901626401536454714E-15 ) ) ;
#226 = CONICAL_SURFACE ( 'NONE', #122, 2.999999999999991562, 0.7853981633974482790 ) ;
#227 = LOCAL_TIME ( 7, 57, 1.000000000000000000, #66 ) ;
#228 = CARTESIAN_POINT ( 'NONE',  ( 1.745740669421566425E-13, 8.677665382962492735E-31, 49.99999999999999289 ) ) ;
#229 = APPROVAL ( #119, 'UNSPECIFIED' ) ;
#230 = FACE_OUTER_BOUND ( 'NONE', #29, .T. ) ;
#231 = DIRECTION ( 'NONE',  ( -3.491481338843133355E-15, 1.224646799147353207E-16, -1.000000000000000000 ) ) ;
#232 = PERSON_AND_ORGANIZATION ( #149, #121 ) ;
#233 = ORIENTED_EDGE ( 'NONE', *, *, #87, .F. ) ;
#234 = PRODUCT ( '30298', '30298', '', ( #208 ) ) ;
#235 = AXIS2_PLACEMENT_3D ( 'NONE', #242, #38, #32 ) ;
#236 = APPROVAL_ROLE ( '' ) ;
#237 = EDGE_LOOP ( 'NONE', ( #146 ) ) ;
#238 = AXIS2_PLACEMENT_3D ( 'NONE', #110, #220, #221 ) ;
#239 = DIRECTION ( 'NONE',  ( 3.491481338843133355E-15, -1.223397583181748052E-16, 1.000000000000000000 ) ) ;
#240 = APPROVAL ( #84, 'UNSPECIFIED' ) ;
#241 = DIRECTION ( 'NONE',  ( 3.491481338843133355E-15, -0.0000000000000000000, 1.000000000000000000 ) ) ;
#242 = CARTESIAN_POINT ( 'NONE',  ( 2.094888803305879382E-14, -7.340385499090486338E-16, 5.999999999999998224 ) ) ;
#243 = EDGE_LOOP ( 'NONE', ( #17 ) ) ;
ENDSEC;
END-ISO-10303-21;
