ISO-10303-21;
HEADER;
FILE_DESCRIPTION (( 'STEP AP203' ),
    '1' );
FILE_NAME ('30130.step',
    '2021-09-03T07:21:55',
    ( '' ),
    ( '' ),
    'SwSTEP 2.0',
    'SolidWorks 2019',
    '' );
FILE_SCHEMA (( 'CONFIG_CONTROL_DESIGN' ));
ENDSEC;

DATA;
#1 = CONICAL_SURFACE ( 'NONE', #38, 5.249999999999993783, 1.029744258676649649 ) ;
#2 = EDGE_CURVE ( 'NONE', #172, #201, #232, .T. ) ;
#3 = DIRECTION ( 'NONE',  ( 0.0000000000000000000, 1.000000000000000000, 0.0000000000000000000 ) ) ;
#4 = DATE_AND_TIME ( #87, #229 ) ;
#5 = LINE ( 'NONE', #211, #21 ) ;
#6 = ORIENTED_EDGE ( 'NONE', *, *, #41, .F. ) ;
#7 = CIRCLE ( 'NONE', #26, 4.250000000000004441 ) ;
#8 = DIRECTION ( 'NONE',  ( -3.491481338843133355E-15, 1.224646799147353207E-16, -1.000000000000000000 ) ) ;
#9 = EDGE_CURVE ( 'NONE', #300, #181, #129, .T. ) ;
#10 = DIRECTION ( 'NONE',  ( 0.0000000000000000000, 1.000000000000000000, 0.0000000000000000000 ) ) ;
#11 = DIRECTION ( 'NONE',  ( 0.0000000000000000000, 1.000000000000000000, 0.0000000000000000000 ) ) ;
#12 = DIRECTION ( 'NONE',  ( -3.491481338843133355E-15, 1.224646799147353207E-16, -1.000000000000000000 ) ) ;
#13 = EDGE_LOOP ( 'NONE', ( #256, #151, #269 ) ) ;
#14 = DIRECTION ( 'NONE',  ( 3.491481338843133355E-15, -1.224646799147353207E-16, 1.000000000000000000 ) ) ;
#15 = DESIGN_CONTEXT ( 'detailed design', #203, 'design' ) ;
#16 = ADVANCED_FACE ( 'NONE', ( #292 ), #261, .T. ) ;
#17 = LOCAL_TIME ( 9, 21, 55.00000000000000000, #108 ) ;
#18 = ORIENTED_EDGE ( 'NONE', *, *, #186, .T. ) ;
#19 = VERTEX_POINT ( 'NONE', #179 ) ;
#20 = PERSON_AND_ORGANIZATION_ROLE ( 'creator' ) ;
#21 = VECTOR ( 'NONE', #314, 1000.000000000000000 ) ;
#22 = VERTEX_POINT ( 'NONE', #135 ) ;
#23 = DIRECTION ( 'NONE',  ( -3.491481338843133355E-15, 1.224646799147353207E-16, -1.000000000000000000 ) ) ;
#24 = DIRECTION ( 'NONE',  ( -4.275831445896958607E-31, -1.000000000000000000, -1.224646799147353207E-16 ) ) ;
#25 = EDGE_CURVE ( 'NONE', #19, #134, #5, .T. ) ;
#26 = AXIS2_PLACEMENT_3D ( 'NONE', #53, #137, #159 ) ;
#27 = DIRECTION ( 'NONE',  ( 4.275831445896958607E-31, 1.000000000000000000, 1.224646799147353207E-16 ) ) ;
#28 = CARTESIAN_POINT ( 'NONE',  ( 3.107418391570388560E-13, -1.089935651241144239E-14, 89.00000000000000000 ) ) ;
#29 = DATE_TIME_ROLE ( 'creation_date' ) ;
#30 = ORIENTED_EDGE ( 'NONE', *, *, #248, .F. ) ;
#31 = EDGE_CURVE ( 'NONE', #201, #172, #7, .T. ) ;
#32 = CARTESIAN_POINT ( 'NONE',  ( 1.082359215041371340E-13, -3.796405077356795115E-15, 31.00000000000000000 ) ) ;
#33 = CIRCLE ( 'NONE', #114, 5.250000000000003553 ) ;
#34 = EDGE_LOOP ( 'NONE', ( #107, #298, #89 ) ) ;
#35 = CARTESIAN_POINT ( 'NONE',  ( 2.244811509095903400E-30, 5.250000000000000000, 6.429395695523604153E-16 ) ) ;
#36 = ORIENTED_EDGE ( 'NONE', *, *, #25, .F. ) ;
#37 = DIRECTION ( 'NONE',  ( 2.934750391447220125E-31, 1.000000000000000000, 8.260587980841948640E-17 ) ) ;
#38 = AXIS2_PLACEMENT_3D ( 'NONE', #331, #170, #230 ) ;
#39 = EDGE_LOOP ( 'NONE', ( #136, #332 ) ) ;
#40 = DIRECTION ( 'NONE',  ( -3.491481338843133355E-15, 1.224646799147353207E-16, -1.000000000000000000 ) ) ;
#41 = EDGE_CURVE ( 'NONE', #19, #225, #42, .T. ) ;
#42 = CIRCLE ( 'NONE', #307, 5.249999999999996447 ) ;
#43 = CARTESIAN_POINT ( 'NONE',  ( 3.107418391570388560E-13, 4.249999999999993783, 89.00000000000000000 ) ) ;
#44 = VECTOR ( 'NONE', #258, 1000.000000000000000 ) ;
#45 = PERSON_AND_ORGANIZATION ( #288, #234 ) ;
#46 = ORIENTED_EDGE ( 'NONE', *, *, #97, .F. ) ;
#47 = APPROVAL ( #322, 'UNSPECIFIED' ) ;
#48 = CYLINDRICAL_SURFACE ( 'NONE', #132, 5.250000000000000000 ) ;
#49 = ORIENTED_EDGE ( 'NONE', *, *, #149, .F. ) ;
#50 = LOCAL_TIME ( 9, 21, 55.00000000000000000, #318 ) ;
#51 = EDGE_LOOP ( 'NONE', ( #112, #286, #209, #70 ) ) ;
#52 = CALENDAR_DATE ( 2021, 3, 9 ) ;
#53 = CARTESIAN_POINT ( 'NONE',  ( 3.107418391570388560E-13, -1.089935651241144239E-14, 89.00000000000000000 ) ) ;
#54 = MANIFOLD_SOLID_BREP ( 'Corps-Déplacer/Copier1[2]', #74 ) ;
#55 = CARTESIAN_POINT ( 'NONE',  ( 0.0000000000000000000, 0.0000000000000000000, 0.0000000000000000000 ) ) ;
#56 = DIRECTION ( 'NONE',  ( -3.491481338843133355E-15, 1.224646799147353207E-16, -1.000000000000000000 ) ) ;
#57 = FACE_OUTER_BOUND ( 'NONE', #302, .T. ) ;
#58 = PERSON_AND_ORGANIZATION_ROLE ( 'creator' ) ;
#59 = CARTESIAN_POINT ( 'NONE',  ( 1.165688117209988540E-14, 5.249999999999993783, 3.154518249894722626 ) ) ;
#60 = AXIS2_PLACEMENT_3D ( 'NONE', #323, #245, #10 ) ;
#61 = DIRECTION ( 'NONE',  ( 1.903218546456022717E-15, 0.8571673007021097801, 0.5150380749100585964 ) ) ;
#62 = APPROVAL_ROLE ( '' ) ;
#63 = MECHANICAL_CONTEXT ( 'NONE', #180, 'mechanical' ) ;
#64 = DATE_AND_TIME ( #297, #17 ) ;
#65 = FACE_OUTER_BOUND ( 'NONE', #305, .T. ) ;
#66 =( GEOMETRIC_REPRESENTATION_CONTEXT ( 3 ) GLOBAL_UNCERTAINTY_ASSIGNED_CONTEXT ( ( #155 ) ) GLOBAL_UNIT_ASSIGNED_CONTEXT ( ( #183, #296, #208 ) ) REPRESENTATION_CONTEXT ( 'NONE', 'WORKASPACE' ) );
#67 = EDGE_CURVE ( 'NONE', #165, #22, #106, .T. ) ;
#68 = PLANE ( 'NONE',  #263 ) ;
#69 = APPLICATION_PROTOCOL_DEFINITION ( 'international standard', 'config_control_design', 1994, #203 ) ;
#70 = ORIENTED_EDGE ( 'NONE', *, *, #301, .F. ) ;
#71 = CYLINDRICAL_SURFACE ( 'NONE', #279, 5.250000000000000000 ) ;
#72 = PERSON_AND_ORGANIZATION_ROLE ( 'design_owner' ) ;
#73 = DIRECTION ( 'NONE',  ( -3.491481338843133355E-15, 1.224646799147353207E-16, -1.000000000000000000 ) ) ;
#74 = CLOSED_SHELL ( 'NONE', ( #85, #169, #226, #16, #293 ) ) ;
#75 = DIRECTION ( 'NONE',  ( 3.491481338843133355E-15, -1.224646799147353207E-16, 1.000000000000000000 ) ) ;
#76 = DATE_TIME_ROLE ( 'classification_date' ) ;
#77 = CARTESIAN_POINT ( 'NONE',  ( 1.101394160254752429E-14, -3.863170677585481949E-16, 3.154518249894722182 ) ) ;
#78 = CIRCLE ( 'NONE', #316, 5.249999999999993783 ) ;
#79 = CARTESIAN_POINT ( 'NONE',  ( 2.083860792307186553E-13, -5.250000000000014211, 88.00000000000000000 ) ) ;
#80 = ORIENTED_EDGE ( 'NONE', *, *, #130, .T. ) ;
#81 = LINE ( 'NONE', #110, #84 ) ;
#82 = CYLINDRICAL_SURFACE ( 'NONE', #221, 5.249999999999995559 ) ;
#83 = DIRECTION ( 'NONE',  ( 1.798245827342160317E-15, -0.8571673007021098911, 0.5150380749100582634 ) ) ;
#84 = VECTOR ( 'NONE', #83, 1000.000000000000000 ) ;
#85 = ADVANCED_FACE ( 'NONE', ( #191 ), #82, .T. ) ;
#86 = AXIS2_PLACEMENT_3D ( 'NONE', #284, #235, #337 ) ;
#87 = CALENDAR_DATE ( 2021, 3, 9 ) ;
#88 = ORIENTED_EDGE ( 'NONE', *, *, #149, .T. ) ;
#89 = ORIENTED_EDGE ( 'NONE', *, *, #310, .T. ) ;
#90 = ADVANCED_BREP_SHAPE_REPRESENTATION ( '30130', ( #166, #54, #96 ), #66 ) ;
#91 = ADVANCED_FACE ( 'NONE', ( #216 ), #259, .T. ) ;
#92 = ORIENTED_EDGE ( 'NONE', *, *, #2, .T. ) ;
#93 = CARTESIAN_POINT ( 'NONE',  ( 3.072503578181957353E-13, 5.249999999999993783, 88.00000000000000000 ) ) ;
#94 = CC_DESIGN_PERSON_AND_ORGANIZATION_ASSIGNMENT ( #45, #198, ( #330 ) ) ;
#95 = AXIS2_PLACEMENT_3D ( 'NONE', #32, #56, #11 ) ;
#96 = AXIS2_PLACEMENT_3D ( 'NONE', #272, #267, #139 ) ;
#97 = EDGE_CURVE ( 'NONE', #193, #148, #213, .T. ) ;
#98 = CLOSED_SHELL ( 'NONE', ( #91, #207, #152, #251, #321, #260 ) ) ;
#99 = CARTESIAN_POINT ( 'NONE',  ( 3.095778057172123065E-13, -4.250000000000015987, 89.00000000000000000 ) ) ;
#100 = SHAPE_DEFINITION_REPRESENTATION ( #276, #90 ) ;
#101 = PERSON_AND_ORGANIZATION ( #288, #234 ) ;
#102 = DIRECTION ( 'NONE',  ( -3.491481338843133355E-15, 1.224646799147353207E-16, -1.000000000000000000 ) ) ;
#103 = DIRECTION ( 'NONE',  ( 4.275831445896957731E-31, 1.000000000000000000, 1.224646799147353207E-16 ) ) ;
#104 = APPROVAL_ROLE ( '' ) ;
#105 = VECTOR ( 'NONE', #140, 1000.000000000000000 ) ;
#106 = LINE ( 'NONE', #59, #206 ) ;
#107 = ORIENTED_EDGE ( 'NONE', *, *, #67, .F. ) ;
#108 = COORDINATED_UNIVERSAL_TIME_OFFSET ( 1, 0, .AHEAD. ) ;
#109 = APPROVAL_STATUS ( 'not_yet_approved' ) ;
#110 = CARTESIAN_POINT ( 'NONE',  ( 1.101394160254752272E-14, -5.249999999999993783, 3.154518249894721738 ) ) ;
#111 = EDGE_CURVE ( 'NONE', #193, #300, #153, .T. ) ;
#112 = ORIENTED_EDGE ( 'NONE', *, *, #186, .F. ) ;
#113 = COORDINATED_UNIVERSAL_TIME_OFFSET ( 1, 0, .AHEAD. ) ;
#114 = AXIS2_PLACEMENT_3D ( 'NONE', #294, #23, #241 ) ;
#115 = LOCAL_TIME ( 9, 21, 55.00000000000000000, #116 ) ;
#116 = COORDINATED_UNIVERSAL_TIME_OFFSET ( 1, 0, .AHEAD. ) ;
#117 = CARTESIAN_POINT ( 'NONE',  ( 1.082359215041371340E-13, 3.936869429487368284E-32, 31.00000000000000000 ) ) ;
#118 = CALENDAR_DATE ( 2021, 3, 9 ) ;
#119 = DIRECTION ( 'NONE',  ( -3.491481338843133355E-15, 1.224646799147353207E-16, -1.000000000000000000 ) ) ;
#120 = CARTESIAN_POINT ( 'NONE',  ( 2.244811509095900948E-30, 5.249999999999995559, 6.429395695523599222E-16 ) ) ;
#121 = DATE_AND_TIME ( #118, #264 ) ;
#122 = ORIENTED_EDGE ( 'NONE', *, *, #248, .T. ) ;
#123 = AXIS2_PLACEMENT_3D ( 'NONE', #163, #271, #37 ) ;
#124 = CARTESIAN_POINT ( 'NONE',  ( 0.0000000000000000000, 0.0000000000000000000, 0.0000000000000000000 ) ) ;
#125 = EDGE_CURVE ( 'NONE', #165, #134, #81, .T. ) ;
#126 = CARTESIAN_POINT ( 'NONE',  ( 3.107418391570388560E-13, 4.249999999999993783, 89.00000000000000000 ) ) ;
#127 = APPROVAL_DATE_TIME ( #64, #313 ) ;
#128 = DIRECTION ( 'NONE',  ( -3.491481338843133355E-15, 1.224646799147353207E-16, -1.000000000000000000 ) ) ;
#129 = LINE ( 'NONE', #205, #249 ) ;
#130 = EDGE_CURVE ( 'NONE', #148, #181, #275, .T. ) ;
#131 = DIRECTION ( 'NONE',  ( -2.934750391447220125E-31, -1.000000000000000000, -8.260587980841948640E-17 ) ) ;
#132 = AXIS2_PLACEMENT_3D ( 'NONE', #55, #156, #27 ) ;
#133 = CONICAL_SURFACE ( 'NONE', #86, 4.250000000000004441, 0.7853981633974473908 ) ;
#134 = VERTEX_POINT ( 'NONE', #268 ) ;
#135 = CARTESIAN_POINT ( 'NONE',  ( 1.165688117209988540E-14, 5.249999999999993783, 3.154518249894722626 ) ) ;
#136 = ORIENTED_EDGE ( 'NONE', *, *, #2, .F. ) ;
#137 = DIRECTION ( 'NONE',  ( -3.491481338843133355E-15, 1.224646799147353207E-16, -1.000000000000000000 ) ) ;
#138 = APPROVAL_PERSON_ORGANIZATION ( #184, #47, #194 ) ;
#139 = DIRECTION ( 'NONE',  ( 1.000000000000000000, 0.0000000000000000000, 0.0000000000000000000 ) ) ;
#140 = DIRECTION ( 'NONE',  ( -3.491481338843133355E-15, 1.224646799147353207E-16, -1.000000000000000000 ) ) ;
#141 = CC_DESIGN_PERSON_AND_ORGANIZATION_ASSIGNMENT ( #210, #58, ( #236 ) ) ;
#142 = CARTESIAN_POINT ( 'NONE',  ( 0.0000000000000000000, 0.0000000000000000000, 0.0000000000000000000 ) ) ;
#143 = PLANE ( 'NONE',  #315 ) ;
#144 = CC_DESIGN_APPROVAL ( #313, ( #330 ) ) ;
#145 = DATE_AND_TIME ( #164, #115 ) ;
#146 = ORIENTED_EDGE ( 'NONE', *, *, #41, .T. ) ;
#147 = CARTESIAN_POINT ( 'NONE',  ( 3.107418391570388560E-13, 3.186989538156434006E-32, 89.00000000000000000 ) ) ;
#148 = VERTEX_POINT ( 'NONE', #295 ) ;
#149 = EDGE_CURVE ( 'NONE', #225, #19, #182, .T. ) ;
#150 = ORIENTED_EDGE ( 'NONE', *, *, #97, .T. ) ;
#151 = ORIENTED_EDGE ( 'NONE', *, *, #67, .T. ) ;
#152 = ADVANCED_FACE ( 'NONE', ( #57 ), #196, .F. ) ;
#153 = CIRCLE ( 'NONE', #60, 5.250000000000003553 ) ;
#154 = DIRECTION ( 'NONE',  ( -3.491481338843133355E-15, 1.224646799147353207E-16, -1.000000000000000000 ) ) ;
#155 = UNCERTAINTY_MEASURE_WITH_UNIT (LENGTH_MEASURE( 1.000000000000000082E-05 ), #183, 'distance_accuracy_value', 'NONE');
#156 = DIRECTION ( 'NONE',  ( -3.491481338843133355E-15, 1.224646799147353207E-16, -1.000000000000000000 ) ) ;
#157 = CIRCLE ( 'NONE', #123, 5.249999999999993783 ) ;
#158 = EDGE_CURVE ( 'NONE', #181, #148, #283, .T. ) ;
#159 = DIRECTION ( 'NONE',  ( 0.0000000000000000000, 1.000000000000000000, 0.0000000000000000000 ) ) ;
#160 = EDGE_CURVE ( 'NONE', #22, #134, #157, .T. ) ;
#161 = DIRECTION ( 'NONE',  ( -3.491481338843133355E-15, 1.224646799147353207E-16, -1.000000000000000000 ) ) ;
#162 = DIRECTION ( 'NONE',  ( -3.491481338843133355E-15, 1.224646799147353207E-16, -1.000000000000000000 ) ) ;
#163 = CARTESIAN_POINT ( 'NONE',  ( 1.101394160254752429E-14, -3.863170677585481949E-16, 3.154518249894722182 ) ) ;
#164 = CALENDAR_DATE ( 2021, 3, 9 ) ;
#165 = VERTEX_POINT ( 'NONE', #142 ) ;
#166 = MANIFOLD_SOLID_BREP ( 'Corps-Déplacer/Copier1[1]', #98 ) ;
#167 = FACE_OUTER_BOUND ( 'NONE', #39, .T. ) ;
#168 = PERSON_AND_ORGANIZATION ( #288, #234 ) ;
#169 = ADVANCED_FACE ( 'NONE', ( #247 ), #304, .T. ) ;
#170 = DIRECTION ( 'NONE',  ( 3.491481338843133355E-15, -1.224646799147353207E-16, 1.000000000000000000 ) ) ;
#171 = AXIS2_PLACEMENT_3D ( 'NONE', #28, #102, #3 ) ;
#172 = VERTEX_POINT ( 'NONE', #126 ) ;
#173 = PERSON_AND_ORGANIZATION_ROLE ( 'design_supplier' ) ;
#174 = DIRECTION ( 'NONE',  ( 2.934750391447220125E-31, 1.000000000000000000, 8.260587980841948640E-17 ) ) ;
#175 = AXIS2_PLACEMENT_3D ( 'NONE', #117, #324, #189 ) ;
#176 = EDGE_LOOP ( 'NONE', ( #92, #18, #190, #187 ) ) ;
#177 = CARTESIAN_POINT ( 'NONE',  ( 3.112623140466765372E-13, -4.250000000000015987, 89.00000000000000000 ) ) ;
#178 = EDGE_CURVE ( 'NONE', #172, #193, #231, .T. ) ;
#179 = CARTESIAN_POINT ( 'NONE',  ( 6.026787112289464924E-14, -5.250000000000000000, 31.00000000000000000 ) ) ;
#180 = APPLICATION_CONTEXT ( 'configuration controlled 3d designs of mechanical parts and assemblies' ) ;
#181 = VERTEX_POINT ( 'NONE', #336 ) ;
#182 = CIRCLE ( 'NONE', #95, 5.249999999999996447 ) ;
#183 =( LENGTH_UNIT ( ) NAMED_UNIT ( * ) SI_UNIT ( .MILLI., .METRE. ) );
#184 = PERSON_AND_ORGANIZATION ( #288, #234 ) ;
#185 = DIRECTION ( 'NONE',  ( 0.0000000000000000000, 1.000000000000000000, 0.0000000000000000000 ) ) ;
#186 = EDGE_CURVE ( 'NONE', #201, #300, #237, .T. ) ;
#187 = ORIENTED_EDGE ( 'NONE', *, *, #178, .F. ) ;
#188 = CARTESIAN_POINT ( 'NONE',  ( 3.107418391570388560E-13, -1.089935651241144239E-14, 89.00000000000000000 ) ) ;
#189 = DIRECTION ( 'NONE',  ( -4.275831445896958607E-31, -1.000000000000000000, -1.224646799147353207E-16 ) ) ;
#190 = ORIENTED_EDGE ( 'NONE', *, *, #111, .F. ) ;
#191 = FACE_OUTER_BOUND ( 'NONE', #265, .T. ) ;
#192 = CC_DESIGN_APPROVAL ( #47, ( #215 ) ) ;
#193 = VERTEX_POINT ( 'NONE', #93 ) ;
#194 = APPROVAL_ROLE ( '' ) ;
#195 = DIRECTION ( 'NONE',  ( 0.0000000000000000000, 1.000000000000000000, 0.0000000000000000000 ) ) ;
#196 = PLANE ( 'NONE',  #175 ) ;
#197 = ORIENTED_EDGE ( 'NONE', *, *, #9, .F. ) ;
#198 = PERSON_AND_ORGANIZATION_ROLE ( 'classification_officer' ) ;
#199 = AXIS2_PLACEMENT_3D ( 'NONE', #274, #40, #195 ) ;
#200 = CC_DESIGN_PERSON_AND_ORGANIZATION_ASSIGNMENT ( #168, #72, ( #250 ) ) ;
#201 = VERTEX_POINT ( 'NONE', #99 ) ;
#202 = FACE_OUTER_BOUND ( 'NONE', #220, .T. ) ;
#203 = APPLICATION_CONTEXT ( 'configuration controlled 3d designs of mechanical parts and assemblies' ) ;
#204 = LINE ( 'NONE', #120, #329 ) ;
#205 = CARTESIAN_POINT ( 'NONE',  ( 6.429395695523582459E-16, -5.250000000000000000, -6.429395695523626833E-16 ) ) ;
#206 = VECTOR ( 'NONE', #61, 999.9999999999998863 ) ;
#207 = ADVANCED_FACE ( 'NONE', ( #65 ), #48, .T. ) ;
#208 =( NAMED_UNIT ( * ) SI_UNIT ( $, .STERADIAN. ) SOLID_ANGLE_UNIT ( ) );
#209 = ORIENTED_EDGE ( 'NONE', *, *, #178, .T. ) ;
#210 = PERSON_AND_ORGANIZATION ( #288, #234 ) ;
#211 = CARTESIAN_POINT ( 'NONE',  ( 6.429395695523576543E-16, -5.249999999999995559, -6.429395695523619930E-16 ) ) ;
#212 = APPROVAL_DATE_TIME ( #4, #334 ) ;
#213 = LINE ( 'NONE', #35, #105 ) ;
#214 = AXIS2_PLACEMENT_3D ( 'NONE', #188, #161, #270 ) ;
#215 = PRODUCT_DEFINITION_FORMATION_WITH_SPECIFIED_SOURCE ( 'ANY', '', #250, .NOT_KNOWN. ) ;
#216 = FACE_OUTER_BOUND ( 'NONE', #176, .T. ) ;
#217 = EDGE_LOOP ( 'NONE', ( #36, #146, #122, #291 ) ) ;
#218 = DIRECTION ( 'NONE',  ( -3.491481338843133355E-15, 1.224646799147353207E-16, -1.000000000000000000 ) ) ;
#219 = ORIENTED_EDGE ( 'NONE', *, *, #158, .T. ) ;
#220 = EDGE_LOOP ( 'NONE', ( #197, #242, #150, #306 ) ) ;
#221 = AXIS2_PLACEMENT_3D ( 'NONE', #299, #162, #103 ) ;
#222 = APPROVAL_PERSON_ORGANIZATION ( #280, #334, #62 ) ;
#223 = CC_DESIGN_DATE_AND_TIME_ASSIGNMENT ( #266, #29, ( #236 ) ) ;
#224 = DIRECTION ( 'NONE',  ( 4.275831445896958607E-31, 1.000000000000000000, 1.224646799147353207E-16 ) ) ;
#225 = VERTEX_POINT ( 'NONE', #240 ) ;
#226 = ADVANCED_FACE ( 'NONE', ( #277 ), #1, .T. ) ;
#227 = COORDINATED_UNIVERSAL_TIME_OFFSET ( 1, 0, .AHEAD. ) ;
#228 = AXIS2_PLACEMENT_3D ( 'NONE', #319, #218, #185 ) ;
#229 = LOCAL_TIME ( 9, 21, 55.00000000000000000, #113 ) ;
#230 = DIRECTION ( 'NONE',  ( -2.934750391447220125E-31, -1.000000000000000000, -8.260587980841948640E-17 ) ) ;
#231 = LINE ( 'NONE', #43, #44 ) ;
#232 = CIRCLE ( 'NONE', #171, 4.250000000000004441 ) ;
#233 = CC_DESIGN_DATE_AND_TIME_ASSIGNMENT ( #121, #76, ( #330 ) ) ;
#234 = ORGANIZATION ( 'UNSPECIFIED', 'UNSPECIFIED', '' ) ;
#235 = DIRECTION ( 'NONE',  ( -3.491481338843133355E-15, 1.224646799147353207E-16, -1.000000000000000000 ) ) ;
#236 = PRODUCT_DEFINITION ( 'UNKNOWN', '', #215, #15 ) ;
#237 = LINE ( 'NONE', #177, #290 ) ;
#238 = CARTESIAN_POINT ( 'NONE',  ( 0.0000000000000000000, 0.0000000000000000000, 0.0000000000000000000 ) ) ;
#239 = CC_DESIGN_APPROVAL ( #334, ( #236 ) ) ;
#240 = CARTESIAN_POINT ( 'NONE',  ( 1.082359215041371340E-13, 5.249999999999993783, 31.00000000000000000 ) ) ;
#241 = DIRECTION ( 'NONE',  ( 0.0000000000000000000, 1.000000000000000000, 0.0000000000000000000 ) ) ;
#242 = ORIENTED_EDGE ( 'NONE', *, *, #301, .T. ) ;
#243 = AXIS2_PLACEMENT_3D ( 'NONE', #311, #75, #131 ) ;
#244 = ORIENTED_EDGE ( 'NONE', *, *, #9, .T. ) ;
#245 = DIRECTION ( 'NONE',  ( -3.491481338843133355E-15, 1.224646799147353207E-16, -1.000000000000000000 ) ) ;
#246 = APPLICATION_PROTOCOL_DEFINITION ( 'international standard', 'config_control_design', 1994, #180 ) ;
#247 = FACE_OUTER_BOUND ( 'NONE', #13, .T. ) ;
#248 = EDGE_CURVE ( 'NONE', #225, #22, #204, .T. ) ;
#249 = VECTOR ( 'NONE', #73, 1000.000000000000000 ) ;
#250 = PRODUCT ( '30130', '30130', '', ( #63 ) ) ;
#251 = ADVANCED_FACE ( 'NONE', ( #202 ), #71, .T. ) ;
#252 = FACE_OUTER_BOUND ( 'NONE', #255, .T. ) ;
#253 = CARTESIAN_POINT ( 'NONE',  ( 1.082359215041371340E-13, 3.936869429487368284E-32, 31.00000000000000000 ) ) ;
#254 = CC_DESIGN_SECURITY_CLASSIFICATION ( #330, ( #215 ) ) ;
#255 = EDGE_LOOP ( 'NONE', ( #49, #6 ) ) ;
#256 = ORIENTED_EDGE ( 'NONE', *, *, #125, .F. ) ;
#257 = PRODUCT_RELATED_PRODUCT_CATEGORY ( 'detail', '', ( #250 ) ) ;
#258 = DIRECTION ( 'NONE',  ( -2.468850131082267710E-15, 0.7071067811865470176, -0.7071067811865481278 ) ) ;
#259 = CONICAL_SURFACE ( 'NONE', #214, 4.250000000000004441, 0.7853981633974473908 ) ;
#260 = ADVANCED_FACE ( 'NONE', ( #167 ), #143, .F. ) ;
#261 = CYLINDRICAL_SURFACE ( 'NONE', #326, 5.249999999999995559 ) ;
#262 = FACE_OUTER_BOUND ( 'NONE', #51, .T. ) ;
#263 = AXIS2_PLACEMENT_3D ( 'NONE', #253, #14, #24 ) ;
#264 = LOCAL_TIME ( 9, 21, 55.00000000000000000, #227 ) ;
#265 = EDGE_LOOP ( 'NONE', ( #88, #317, #325, #30 ) ) ;
#266 = DATE_AND_TIME ( #52, #50 ) ;
#267 = DIRECTION ( 'NONE',  ( 0.0000000000000000000, 0.0000000000000000000, 1.000000000000000000 ) ) ;
#268 = CARTESIAN_POINT ( 'NONE',  ( 1.101394160254752272E-14, -5.249999999999993783, 3.154518249894721738 ) ) ;
#269 = ORIENTED_EDGE ( 'NONE', *, *, #160, .T. ) ;
#270 = DIRECTION ( 'NONE',  ( 0.0000000000000000000, 1.000000000000000000, 0.0000000000000000000 ) ) ;
#271 = DIRECTION ( 'NONE',  ( -3.491481338843133355E-15, 1.224646799147353207E-16, -1.000000000000000000 ) ) ;
#272 = CARTESIAN_POINT ( 'NONE',  ( 0.0000000000000000000, 0.0000000000000000000, 0.0000000000000000000 ) ) ;
#273 = ORIENTED_EDGE ( 'NONE', *, *, #130, .F. ) ;
#274 = CARTESIAN_POINT ( 'NONE',  ( 1.082359215041371340E-13, -3.796405077356795115E-15, 31.00000000000000000 ) ) ;
#275 = CIRCLE ( 'NONE', #228, 5.249999999999996447 ) ;
#276 = PRODUCT_DEFINITION_SHAPE ( 'NONE', 'NONE',  #236 ) ;
#277 = FACE_OUTER_BOUND ( 'NONE', #34, .T. ) ;
#278 = PERSON_AND_ORGANIZATION ( #288, #234 ) ;
#279 = AXIS2_PLACEMENT_3D ( 'NONE', #124, #119, #224 ) ;
#280 = PERSON_AND_ORGANIZATION ( #288, #234 ) ;
#281 = CC_DESIGN_PERSON_AND_ORGANIZATION_ASSIGNMENT ( #335, #173, ( #215 ) ) ;
#282 = SECURITY_CLASSIFICATION_LEVEL ( 'unclassified' ) ;
#283 = CIRCLE ( 'NONE', #199, 5.249999999999996447 ) ;
#284 = CARTESIAN_POINT ( 'NONE',  ( 3.107418391570388560E-13, -1.089935651241144239E-14, 89.00000000000000000 ) ) ;
#285 = APPROVAL_DATE_TIME ( #145, #47 ) ;
#286 = ORIENTED_EDGE ( 'NONE', *, *, #31, .T. ) ;
#287 = DIRECTION ( 'NONE',  ( -2.382254525458719047E-15, -0.7071067811865467956, -0.7071067811865483499 ) ) ;
#288 = PERSON ( 'UNSPECIFIED', 'UNSPECIFIED', 'UNSPECIFIED', ('UNSPECIFIED'), ('UNSPECIFIED'), ('UNSPECIFIED') ) ;
#289 = APPROVAL_STATUS ( 'not_yet_approved' ) ;
#290 = VECTOR ( 'NONE', #287, 1000.000000000000000 ) ;
#291 = ORIENTED_EDGE ( 'NONE', *, *, #310, .F. ) ;
#292 = FACE_OUTER_BOUND ( 'NONE', #217, .T. ) ;
#293 = ADVANCED_FACE ( 'NONE', ( #252 ), #68, .T. ) ;
#294 = CARTESIAN_POINT ( 'NONE',  ( 3.072503578181957353E-13, -1.077689183249670724E-14, 88.00000000000000000 ) ) ;
#295 = CARTESIAN_POINT ( 'NONE',  ( 1.082359215041371340E-13, 5.249999999999993783, 31.00000000000000000 ) ) ;
#296 =( NAMED_UNIT ( * ) PLANE_ANGLE_UNIT ( ) SI_UNIT ( $, .RADIAN. ) );
#297 = CALENDAR_DATE ( 2021, 3, 9 ) ;
#298 = ORIENTED_EDGE ( 'NONE', *, *, #125, .T. ) ;
#299 = CARTESIAN_POINT ( 'NONE',  ( 0.0000000000000000000, 0.0000000000000000000, 0.0000000000000000000 ) ) ;
#300 = VERTEX_POINT ( 'NONE', #79 ) ;
#301 = EDGE_CURVE ( 'NONE', #300, #193, #33, .T. ) ;
#302 = EDGE_LOOP ( 'NONE', ( #80, #219 ) ) ;
#303 = DIRECTION ( 'NONE',  ( 0.0000000000000000000, 1.000000000000000000, 0.0000000000000000000 ) ) ;
#304 = CONICAL_SURFACE ( 'NONE', #243, 5.249999999999993783, 1.029744258676649649 ) ;
#305 = EDGE_LOOP ( 'NONE', ( #309, #244, #273, #46 ) ) ;
#306 = ORIENTED_EDGE ( 'NONE', *, *, #158, .F. ) ;
#307 = AXIS2_PLACEMENT_3D ( 'NONE', #320, #8, #303 ) ;
#308 = CC_DESIGN_PERSON_AND_ORGANIZATION_ASSIGNMENT ( #278, #20, ( #215 ) ) ;
#309 = ORIENTED_EDGE ( 'NONE', *, *, #111, .T. ) ;
#310 = EDGE_CURVE ( 'NONE', #134, #22, #78, .T. ) ;
#311 = CARTESIAN_POINT ( 'NONE',  ( 1.101394160254752429E-14, -3.863170677585481949E-16, 3.154518249894722182 ) ) ;
#312 = DIRECTION ( 'NONE',  ( 4.275831445896957731E-31, 1.000000000000000000, 1.224646799147353207E-16 ) ) ;
#313 = APPROVAL ( #109, 'UNSPECIFIED' ) ;
#314 = DIRECTION ( 'NONE',  ( -3.491481338843133355E-15, 1.224646799147353207E-16, -1.000000000000000000 ) ) ;
#315 = AXIS2_PLACEMENT_3D ( 'NONE', #147, #12, #328 ) ;
#316 = AXIS2_PLACEMENT_3D ( 'NONE', #77, #128, #174 ) ;
#317 = ORIENTED_EDGE ( 'NONE', *, *, #25, .T. ) ;
#318 = COORDINATED_UNIVERSAL_TIME_OFFSET ( 1, 0, .AHEAD. ) ;
#319 = CARTESIAN_POINT ( 'NONE',  ( 1.082359215041371340E-13, -3.796405077356795115E-15, 31.00000000000000000 ) ) ;
#320 = CARTESIAN_POINT ( 'NONE',  ( 1.082359215041371340E-13, -3.796405077356795115E-15, 31.00000000000000000 ) ) ;
#321 = ADVANCED_FACE ( 'NONE', ( #262 ), #133, .T. ) ;
#322 = APPROVAL_STATUS ( 'not_yet_approved' ) ;
#323 = CARTESIAN_POINT ( 'NONE',  ( 3.072503578181957353E-13, -1.077689183249670724E-14, 88.00000000000000000 ) ) ;
#324 = DIRECTION ( 'NONE',  ( 3.491481338843133355E-15, -1.224646799147353207E-16, 1.000000000000000000 ) ) ;
#325 = ORIENTED_EDGE ( 'NONE', *, *, #160, .F. ) ;
#326 = AXIS2_PLACEMENT_3D ( 'NONE', #238, #154, #312 ) ;
#327 = APPROVAL_PERSON_ORGANIZATION ( #101, #313, #104 ) ;
#328 = DIRECTION ( 'NONE',  ( 4.275831445896958607E-31, 1.000000000000000000, 1.224646799147353207E-16 ) ) ;
#329 = VECTOR ( 'NONE', #333, 1000.000000000000000 ) ;
#330 = SECURITY_CLASSIFICATION ( '', '', #282 ) ;
#331 = CARTESIAN_POINT ( 'NONE',  ( 1.101394160254752429E-14, -3.863170677585481949E-16, 3.154518249894722182 ) ) ;
#332 = ORIENTED_EDGE ( 'NONE', *, *, #31, .F. ) ;
#333 = DIRECTION ( 'NONE',  ( -3.491481338843133355E-15, 1.224646799147353207E-16, -1.000000000000000000 ) ) ;
#334 = APPROVAL ( #289, 'UNSPECIFIED' ) ;
#335 = PERSON_AND_ORGANIZATION ( #288, #234 ) ;
#336 = CARTESIAN_POINT ( 'NONE',  ( 2.083860792307187563E-13, -5.250000000000000000, 31.00000000000000000 ) ) ;
#337 = DIRECTION ( 'NONE',  ( 0.0000000000000000000, 1.000000000000000000, 0.0000000000000000000 ) ) ;
ENDSEC;
END-ISO-10303-21;
