ISO-10303-21;
HEADER;
FILE_DESCRIPTION (( 'STEP AP203' ),
    '1' );
FILE_NAME ('3010.step',
    '2021-12-06T12:58:40',
    ( '' ),
    ( '' ),
    'SwSTEP 2.0',
    'SolidWorks 2019',
    '' );
FILE_SCHEMA (( 'CONFIG_CONTROL_DESIGN' ));
ENDSEC;

DATA;
#1 = CYLINDRICAL_SURFACE ( 'NONE', #128, 2.500000000000001332 ) ;
#2 = AXIS2_PLACEMENT_3D ( 'NONE', #161, #120, #18 ) ;
#3 = PLANE ( 'NONE',  #40 ) ;
#4 = DIRECTION ( 'NONE',  ( 2.939634119054158714E-31, 1.000000000000000000, 8.419446744138052529E-17 ) ) ;
#5 = DIRECTION ( 'NONE',  ( -3.491481338843133355E-15, 8.419446744138052529E-17, -1.000000000000000000 ) ) ;
#6 = ADVANCED_FACE ( 'NONE', ( #16, #65 ), #1, .F. ) ;
#7 = PERSON_AND_ORGANIZATION_ROLE ( 'creator' ) ;
#8 = PERSON_AND_ORGANIZATION ( #69, #86 ) ;
#9 = APPROVAL_ROLE ( '' ) ;
#10 = DATE_AND_TIME ( #157, #92 ) ;
#11 = CIRCLE ( 'NONE', #100, 10.00000000000000178 ) ;
#12 = PERSON_AND_ORGANIZATION ( #69, #86 ) ;
#13 = ORIENTED_EDGE ( 'NONE', *, *, #113, .T. ) ;
#14 = DIRECTION ( 'NONE',  ( 2.939634119054158714E-31, 1.000000000000000000, 8.419446744138052529E-17 ) ) ;
#15 = PRODUCT_DEFINITION_FORMATION_WITH_SPECIFIED_SOURCE ( 'ANY', '', #138, .NOT_KNOWN. ) ;
#16 = FACE_OUTER_BOUND ( 'NONE', #105, .T. ) ;
#17 = EDGE_LOOP ( 'NONE', ( #117 ) ) ;
#18 = DIRECTION ( 'NONE',  ( 2.939634119054158714E-31, 1.000000000000000000, 8.419446744138052529E-17 ) ) ;
#19 = CARTESIAN_POINT ( 'NONE',  ( 0.0000000000000000000, 0.0000000000000000000, 0.0000000000000000000 ) ) ;
#20 = DIRECTION ( 'NONE',  ( 1.000000000000000000, 0.0000000000000000000, 0.0000000000000000000 ) ) ;
#21 = APPLICATION_PROTOCOL_DEFINITION ( 'international standard', 'config_control_design', 1994, #32 ) ;
#22 = CC_DESIGN_DATE_AND_TIME_ASSIGNMENT ( #145, #30, ( #82 ) ) ;
#23 = CC_DESIGN_APPROVAL ( #167, ( #147 ) ) ;
#24 = ORIENTED_EDGE ( 'NONE', *, *, #121, .T. ) ;
#25 = EDGE_LOOP ( 'NONE', ( #61 ) ) ;
#26 = DIRECTION ( 'NONE',  ( -3.491481338843133355E-15, 8.419446744138052529E-17, -1.000000000000000000 ) ) ;
#27 = APPROVAL_PERSON_ORGANIZATION ( #56, #41, #66 ) ;
#28 = CARTESIAN_POINT ( 'NONE',  ( -7.349085297635397660E-31, 1.772177086934421703E-32, -2.104861686034513564E-16 ) ) ;
#29 = CC_DESIGN_DATE_AND_TIME_ASSIGNMENT ( #10, #140, ( #147 ) ) ;
#30 = DATE_TIME_ROLE ( 'creation_date' ) ;
#31 =( GEOMETRIC_REPRESENTATION_CONTEXT ( 3 ) GLOBAL_UNCERTAINTY_ASSIGNED_CONTEXT ( ( #35 ) ) GLOBAL_UNIT_ASSIGNED_CONTEXT ( ( #106, #34, #95 ) ) REPRESENTATION_CONTEXT ( 'NONE', 'WORKASPACE' ) );
#32 = APPLICATION_CONTEXT ( 'configuration controlled 3d designs of mechanical parts and assemblies' ) ;
#33 = PERSON_AND_ORGANIZATION ( #69, #86 ) ;
#34 =( NAMED_UNIT ( * ) PLANE_ANGLE_UNIT ( ) SI_UNIT ( $, .RADIAN. ) );
#35 = UNCERTAINTY_MEASURE_WITH_UNIT (LENGTH_MEASURE( 1.000000000000000082E-05 ), #106, 'distance_accuracy_value', 'NONE');
#36 = COORDINATED_UNIVERSAL_TIME_OFFSET ( 1, 0, .AHEAD. ) ;
#37 = PERSON_AND_ORGANIZATION ( #69, #86 ) ;
#38 = CIRCLE ( 'NONE', #78, 2.500000000000000444 ) ;
#39 = EDGE_CURVE ( 'NONE', #108, #108, #38, .T. ) ;
#40 = AXIS2_PLACEMENT_3D ( 'NONE', #46, #5, #4 ) ;
#41 = APPROVAL ( #45, 'UNSPECIFIED' ) ;
#42 = CC_DESIGN_PERSON_AND_ORGANIZATION_ASSIGNMENT ( #8, #164, ( #15 ) ) ;
#43 = FACE_BOUND ( 'NONE', #25, .T. ) ;
#44 = CIRCLE ( 'NONE', #50, 10.00000000000000178 ) ;
#45 = APPROVAL_STATUS ( 'not_yet_approved' ) ;
#46 = CARTESIAN_POINT ( 'NONE',  ( -1.102362794645309605E-30, 2.500000000000000444, -3.157292529051769976E-16 ) ) ;
#47 = APPLICATION_CONTEXT ( 'configuration controlled 3d designs of mechanical parts and assemblies' ) ;
#48 = PERSON_AND_ORGANIZATION_ROLE ( 'classification_officer' ) ;
#49 = COORDINATED_UNIVERSAL_TIME_OFFSET ( 1, 0, .AHEAD. ) ;
#50 = AXIS2_PLACEMENT_3D ( 'NONE', #63, #115, #169 ) ;
#51 = EDGE_LOOP ( 'NONE', ( #13 ) ) ;
#52 = EDGE_LOOP ( 'NONE', ( #72 ) ) ;
#53 = EDGE_LOOP ( 'NONE', ( #24 ) ) ;
#54 = CC_DESIGN_PERSON_AND_ORGANIZATION_ASSIGNMENT ( #123, #7, ( #82 ) ) ;
#55 = CARTESIAN_POINT ( 'NONE',  ( 0.0000000000000000000, 2.500000000000000444, 0.0000000000000000000 ) ) ;
#56 = PERSON_AND_ORGANIZATION ( #69, #86 ) ;
#57 = AXIS2_PLACEMENT_3D ( 'NONE', #19, #124, #20 ) ;
#58 = CARTESIAN_POINT ( 'NONE',  ( 5.586370142149013368E-15, 2.500000000000002220, 1.599999999999999867 ) ) ;
#59 = CC_DESIGN_PERSON_AND_ORGANIZATION_ASSIGNMENT ( #84, #48, ( #147 ) ) ;
#60 = PRODUCT_RELATED_PRODUCT_CATEGORY ( 'detail', '', ( #138 ) ) ;
#61 = ORIENTED_EDGE ( 'NONE', *, *, #135, .T. ) ;
#62 = CIRCLE ( 'NONE', #70, 2.500000000000002220 ) ;
#63 = CARTESIAN_POINT ( 'NONE',  ( -2.939634119054159064E-30, 7.088708347737686811E-32, -8.419446744138054255E-16 ) ) ;
#64 = CARTESIAN_POINT ( 'NONE',  ( 5.586370142149012580E-15, -1.347111479062088010E-16, 1.599999999999999645 ) ) ;
#65 = FACE_OUTER_BOUND ( 'NONE', #168, .T. ) ;
#66 = APPROVAL_ROLE ( '' ) ;
#67 = PERSON_AND_ORGANIZATION_ROLE ( 'design_owner' ) ;
#68 = CALENDAR_DATE ( 2021, 6, 12 ) ;
#69 = PERSON ( 'UNSPECIFIED', 'UNSPECIFIED', 'UNSPECIFIED', ('UNSPECIFIED'), ('UNSPECIFIED'), ('UNSPECIFIED') ) ;
#70 = AXIS2_PLACEMENT_3D ( 'NONE', #64, #81, #119 ) ;
#71 = CC_DESIGN_PERSON_AND_ORGANIZATION_ASSIGNMENT ( #33, #67, ( #138 ) ) ;
#72 = ORIENTED_EDGE ( 'NONE', *, *, #121, .F. ) ;
#73 = DIRECTION ( 'NONE',  ( 3.081487911019576927E-31, 1.000000000000000000, 8.673617379884034239E-17 ) ) ;
#74 = AXIS2_PLACEMENT_3D ( 'NONE', #87, #159, #141 ) ;
#75 = FACE_OUTER_BOUND ( 'NONE', #102, .T. ) ;
#76 = ADVANCED_BREP_SHAPE_REPRESENTATION ( '3010', ( #116, #57 ), #31 ) ;
#77 = PERSON_AND_ORGANIZATION ( #69, #86 ) ;
#78 = AXIS2_PLACEMENT_3D ( 'NONE', #28, #103, #101 ) ;
#79 = FACE_OUTER_BOUND ( 'NONE', #53, .T. ) ;
#80 = FACE_BOUND ( 'NONE', #17, .T. ) ;
#81 = DIRECTION ( 'NONE',  ( -3.491481338843133355E-15, 8.419446744138052529E-17, -1.000000000000000000 ) ) ;
#82 = PRODUCT_DEFINITION ( 'UNKNOWN', '', #15, #139 ) ;
#83 = APPROVAL_STATUS ( 'not_yet_approved' ) ;
#84 = PERSON_AND_ORGANIZATION ( #69, #86 ) ;
#85 = APPROVAL_DATE_TIME ( #153, #167 ) ;
#86 = ORGANIZATION ( 'UNSPECIFIED', 'UNSPECIFIED', '' ) ;
#87 = CARTESIAN_POINT ( 'NONE',  ( 5.586370142149012580E-15, 2.500000000000002220, 1.599999999999999645 ) ) ;
#88 = CC_DESIGN_APPROVAL ( #41, ( #82 ) ) ;
#89 = CALENDAR_DATE ( 2021, 6, 12 ) ;
#90 = ADVANCED_FACE ( 'NONE', ( #43, #75 ), #158, .T. ) ;
#91 = FACE_OUTER_BOUND ( 'NONE', #51, .T. ) ;
#92 = LOCAL_TIME ( 13, 58, 40.00000000000000000, #96 ) ;
#93 = MECHANICAL_CONTEXT ( 'NONE', #32, 'mechanical' ) ;
#94 = DATE_AND_TIME ( #68, #107 ) ;
#95 =( NAMED_UNIT ( * ) SI_UNIT ( $, .STERADIAN. ) SOLID_ANGLE_UNIT ( ) );
#96 = COORDINATED_UNIVERSAL_TIME_OFFSET ( 1, 0, .AHEAD. ) ;
#97 = APPROVAL_DATE_TIME ( #110, #99 ) ;
#98 = APPROVAL_PERSON_ORGANIZATION ( #77, #99, #165 ) ;
#99 = APPROVAL ( #130, 'UNSPECIFIED' ) ;
#100 = AXIS2_PLACEMENT_3D ( 'NONE', #142, #26, #73 ) ;
#101 = DIRECTION ( 'NONE',  ( 2.939634119054158714E-31, 1.000000000000000000, 8.419446744138052529E-17 ) ) ;
#102 = EDGE_LOOP ( 'NONE', ( #129 ) ) ;
#103 = DIRECTION ( 'NONE',  ( -3.491481338843133355E-15, 8.419446744138052529E-17, -1.000000000000000000 ) ) ;
#104 = PRODUCT_DEFINITION_SHAPE ( 'NONE', 'NONE',  #82 ) ;
#105 = EDGE_LOOP ( 'NONE', ( #127 ) ) ;
#106 =( LENGTH_UNIT ( ) NAMED_UNIT ( * ) SI_UNIT ( .MILLI., .METRE. ) );
#107 = LOCAL_TIME ( 13, 58, 40.00000000000000000, #36 ) ;
#108 = VERTEX_POINT ( 'NONE', #55 ) ;
#109 = APPROVAL_DATE_TIME ( #94, #41 ) ;
#110 = DATE_AND_TIME ( #112, #131 ) ;
#111 = SECURITY_CLASSIFICATION_LEVEL ( 'unclassified' ) ;
#112 = CALENDAR_DATE ( 2021, 6, 12 ) ;
#113 = EDGE_CURVE ( 'NONE', #118, #118, #11, .T. ) ;
#114 = CARTESIAN_POINT ( 'NONE',  ( 0.0000000000000000000, 0.0000000000000000000, 0.0000000000000000000 ) ) ;
#115 = DIRECTION ( 'NONE',  ( -3.491481338843133355E-15, 8.419446744138052529E-17, -1.000000000000000000 ) ) ;
#116 = MANIFOLD_SOLID_BREP ( 'Corps-Déplacer/Copier1', #151 ) ;
#117 = ORIENTED_EDGE ( 'NONE', *, *, #39, .F. ) ;
#118 = VERTEX_POINT ( 'NONE', #146 ) ;
#119 = DIRECTION ( 'NONE',  ( 3.081487911019574737E-31, 1.000000000000000000, 8.673617379884028076E-17 ) ) ;
#120 = DIRECTION ( 'NONE',  ( -3.491481338843133355E-15, 8.419446744138052529E-17, -1.000000000000000000 ) ) ;
#121 = EDGE_CURVE ( 'NONE', #133, #133, #44, .T. ) ;
#122 = CC_DESIGN_APPROVAL ( #99, ( #15 ) ) ;
#123 = PERSON_AND_ORGANIZATION ( #69, #86 ) ;
#124 = DIRECTION ( 'NONE',  ( 0.0000000000000000000, 0.0000000000000000000, 1.000000000000000000 ) ) ;
#125 = LOCAL_TIME ( 13, 58, 40.00000000000000000, #163 ) ;
#126 = COORDINATED_UNIVERSAL_TIME_OFFSET ( 1, 0, .AHEAD. ) ;
#127 = ORIENTED_EDGE ( 'NONE', *, *, #39, .T. ) ;
#128 = AXIS2_PLACEMENT_3D ( 'NONE', #114, #160, #14 ) ;
#129 = ORIENTED_EDGE ( 'NONE', *, *, #113, .F. ) ;
#130 = APPROVAL_STATUS ( 'not_yet_approved' ) ;
#131 = LOCAL_TIME ( 13, 58, 40.00000000000000000, #126 ) ;
#132 = VERTEX_POINT ( 'NONE', #58 ) ;
#133 = VERTEX_POINT ( 'NONE', #134 ) ;
#134 = CARTESIAN_POINT ( 'NONE',  ( 0.0000000000000000000, 10.00000000000000178, 0.0000000000000000000 ) ) ;
#135 = EDGE_CURVE ( 'NONE', #132, #132, #62, .T. ) ;
#136 = PERSON_AND_ORGANIZATION_ROLE ( 'design_supplier' ) ;
#137 = SHAPE_DEFINITION_REPRESENTATION ( #104, #76 ) ;
#138 = PRODUCT ( '3010', '3010', '', ( #93 ) ) ;
#139 = DESIGN_CONTEXT ( 'detailed design', #47, 'design' ) ;
#140 = DATE_TIME_ROLE ( 'classification_date' ) ;
#141 = DIRECTION ( 'NONE',  ( -2.939634119054158714E-31, -1.000000000000000000, -8.419446744138052529E-17 ) ) ;
#142 = CARTESIAN_POINT ( 'NONE',  ( 5.586370142149011002E-15, -1.347111479062087764E-16, 1.599999999999999201 ) ) ;
#143 = ORIENTED_EDGE ( 'NONE', *, *, #135, .F. ) ;
#144 = ADVANCED_FACE ( 'NONE', ( #91, #148 ), #162, .T. ) ;
#145 = DATE_AND_TIME ( #89, #125 ) ;
#146 = CARTESIAN_POINT ( 'NONE',  ( 5.586370142149014157E-15, 10.00000000000000178, 1.600000000000000089 ) ) ;
#147 = SECURITY_CLASSIFICATION ( '', '', #111 ) ;
#148 = FACE_OUTER_BOUND ( 'NONE', #52, .T. ) ;
#149 = APPLICATION_PROTOCOL_DEFINITION ( 'international standard', 'config_control_design', 1994, #47 ) ;
#150 = CC_DESIGN_PERSON_AND_ORGANIZATION_ASSIGNMENT ( #37, #136, ( #15 ) ) ;
#151 = CLOSED_SHELL ( 'NONE', ( #156, #144, #90, #6 ) ) ;
#152 = CALENDAR_DATE ( 2021, 6, 12 ) ;
#153 = DATE_AND_TIME ( #152, #166 ) ;
#154 = APPROVAL_PERSON_ORGANIZATION ( #12, #167, #9 ) ;
#155 = CC_DESIGN_SECURITY_CLASSIFICATION ( #147, ( #15 ) ) ;
#156 = ADVANCED_FACE ( 'NONE', ( #79, #80 ), #3, .T. ) ;
#157 = CALENDAR_DATE ( 2021, 6, 12 ) ;
#158 = PLANE ( 'NONE',  #74 ) ;
#159 = DIRECTION ( 'NONE',  ( 3.491481338843133355E-15, -8.419446744138052529E-17, 1.000000000000000000 ) ) ;
#160 = DIRECTION ( 'NONE',  ( -3.491481338843133355E-15, 8.419446744138052529E-17, -1.000000000000000000 ) ) ;
#161 = CARTESIAN_POINT ( 'NONE',  ( 0.0000000000000000000, 0.0000000000000000000, 0.0000000000000000000 ) ) ;
#162 = CYLINDRICAL_SURFACE ( 'NONE', #2, 10.00000000000000178 ) ;
#163 = COORDINATED_UNIVERSAL_TIME_OFFSET ( 1, 0, .AHEAD. ) ;
#164 = PERSON_AND_ORGANIZATION_ROLE ( 'creator' ) ;
#165 = APPROVAL_ROLE ( '' ) ;
#166 = LOCAL_TIME ( 13, 58, 40.00000000000000000, #49 ) ;
#167 = APPROVAL ( #83, 'UNSPECIFIED' ) ;
#168 = EDGE_LOOP ( 'NONE', ( #143 ) ) ;
#169 = DIRECTION ( 'NONE',  ( 2.939634119054158714E-31, 1.000000000000000000, 8.419446744138052529E-17 ) ) ;
ENDSEC;
END-ISO-10303-21;
