ISO-10303-21;
HEADER;
FILE_DESCRIPTION (( 'STEP AP203' ),
    '1' );
FILE_NAME ('301.step',
    '2021-09-03T07:21:54',
    ( '' ),
    ( '' ),
    'SwSTEP 2.0',
    'SolidWorks 2019',
    '' );
FILE_SCHEMA (( 'CONFIG_CONTROL_DESIGN' ));
ENDSEC;

DATA;
#1 = CLOSED_SHELL ( 'NONE', ( #289, #171, #42, #230, #94, #278 ) ) ;
#2 = AXIS2_PLACEMENT_3D ( 'NONE', #141, #201, #63 ) ;
#3 = EDGE_LOOP ( 'NONE', ( #208, #244, #252, #16 ) ) ;
#4 = EDGE_CURVE ( 'NONE', #27, #265, #235, .T. ) ;
#5 = CARTESIAN_POINT ( 'NONE',  ( 2.025059176529017346E-13, -7.102951435054648059E-15, 58.00000000000000000 ) ) ;
#6 = DIRECTION ( 'NONE',  ( 0.0000000000000000000, 1.000000000000000000, 0.0000000000000000000 ) ) ;
#7 = LINE ( 'NONE', #109, #35 ) ;
#8 = CC_DESIGN_APPROVAL ( #11, ( #143 ) ) ;
#9 = CC_DESIGN_APPROVAL ( #295, ( #199 ) ) ;
#10 = CALENDAR_DATE ( 2021, 3, 9 ) ;
#11 = APPROVAL ( #148, 'UNSPECIFIED' ) ;
#12 =( GEOMETRIC_REPRESENTATION_CONTEXT ( 3 ) GLOBAL_UNCERTAINTY_ASSIGNED_CONTEXT ( ( #154 ) ) GLOBAL_UNIT_ASSIGNED_CONTEXT ( ( #153, #26, #310 ) ) REPRESENTATION_CONTEXT ( 'NONE', 'WORKASPACE' ) );
#13 = ORIENTED_EDGE ( 'NONE', *, *, #226, .T. ) ;
#14 = DIRECTION ( 'NONE',  ( -3.491481338843133355E-15, 1.224646799147353207E-16, -1.000000000000000000 ) ) ;
#15 = PERSON_AND_ORGANIZATION ( #28, #74 ) ;
#16 = ORIENTED_EDGE ( 'NONE', *, *, #4, .F. ) ;
#17 = AXIS2_PLACEMENT_3D ( 'NONE', #227, #93, #204 ) ;
#18 = CC_DESIGN_DATE_AND_TIME_ASSIGNMENT ( #37, #78, ( #199 ) ) ;
#19 = DATE_TIME_ROLE ( 'creation_date' ) ;
#20 = LINE ( 'NONE', #333, #68 ) ;
#21 = DIRECTION ( 'NONE',  ( -2.468850131082249961E-15, 0.7071067811865521247, -0.7071067811865430208 ) ) ;
#22 = CALENDAR_DATE ( 2021, 3, 9 ) ;
#23 = CARTESIAN_POINT ( 'NONE',  ( 6.284666409917640040E-14, 2.149999999999991473, 18.00000000000000000 ) ) ;
#24 = DIRECTION ( 'NONE',  ( 0.0000000000000000000, 1.000000000000000000, 0.0000000000000000000 ) ) ;
#25 = DIRECTION ( 'NONE',  ( -3.491481338843133355E-15, 1.224646799147353207E-16, -1.000000000000000000 ) ) ;
#26 =( NAMED_UNIT ( * ) PLANE_ANGLE_UNIT ( ) SI_UNIT ( $, .RADIAN. ) );
#27 = VERTEX_POINT ( 'NONE', #277 ) ;
#28 = PERSON ( 'UNSPECIFIED', 'UNSPECIFIED', 'UNSPECIFIED', ('UNSPECIFIED'), ('UNSPECIFIED'), ('UNSPECIFIED') ) ;
#29 = ORIENTED_EDGE ( 'NONE', *, *, #176, .T. ) ;
#30 = ADVANCED_FACE ( 'NONE', ( #175 ), #157, .T. ) ;
#31 = VECTOR ( 'NONE', #54, 1000.000000000000000 ) ;
#32 = VERTEX_POINT ( 'NONE', #128 ) ;
#33 = DIRECTION ( 'NONE',  ( -3.491481338843133355E-15, 1.224646799147353207E-16, -1.000000000000000000 ) ) ;
#34 = EDGE_CURVE ( 'NONE', #328, #32, #315, .T. ) ;
#35 = VECTOR ( 'NONE', #241, 1000.000000000000000 ) ;
#36 = DIRECTION ( 'NONE',  ( -4.275831445896958607E-31, -1.000000000000000000, -1.224646799147353207E-16 ) ) ;
#37 = DATE_AND_TIME ( #218, #85 ) ;
#38 = CARTESIAN_POINT ( 'NONE',  ( 4.510471322948019612E-15, -1.582060372725478679E-16, 1.291850330909263489 ) ) ;
#39 = AXIS2_PLACEMENT_3D ( 'NONE', #5, #33, #6 ) ;
#40 = DATE_AND_TIME ( #88, #215 ) ;
#41 = DIRECTION ( 'NONE',  ( 0.0000000000000000000, 1.000000000000000000, 0.0000000000000000000 ) ) ;
#42 = ADVANCED_FACE ( 'NONE', ( #191 ), #77, .F. ) ;
#43 = LINE ( 'NONE', #250, #56 ) ;
#44 = CLOSED_SHELL ( 'NONE', ( #84, #151, #30, #222, #319 ) ) ;
#45 = AXIS2_PLACEMENT_3D ( 'NONE', #266, #318, #133 ) ;
#46 = CARTESIAN_POINT ( 'NONE',  ( 1.320667196031448000E-13, -2.150000000000005240, 57.50000000000000711 ) ) ;
#47 = FACE_OUTER_BOUND ( 'NONE', #237, .T. ) ;
#48 = SECURITY_CLASSIFICATION_LEVEL ( 'unclassified' ) ;
#49 = MANIFOLD_SOLID_BREP ( 'Corps-Déplacer/Copier1[2]', #44 ) ;
#50 = VECTOR ( 'NONE', #81, 1000.000000000000000 ) ;
#51 = CYLINDRICAL_SURFACE ( 'NONE', #172, 2.149999999999992362 ) ;
#52 = CARTESIAN_POINT ( 'NONE',  ( 2.025059176529017346E-13, 1.649999999999991251, 58.00000000000000000 ) ) ;
#53 = AXIS2_PLACEMENT_3D ( 'NONE', #104, #217, #294 ) ;
#54 = DIRECTION ( 'NONE',  ( -3.491481338843133355E-15, 1.224646799147353207E-16, -1.000000000000000000 ) ) ;
#55 = ORIENTED_EDGE ( 'NONE', *, *, #305, .F. ) ;
#56 = VECTOR ( 'NONE', #200, 1000.000000000000000 ) ;
#57 = ORIENTED_EDGE ( 'NONE', *, *, #312, .T. ) ;
#58 = EDGE_LOOP ( 'NONE', ( #236, #111, #249 ) ) ;
#59 = APPROVAL_PERSON_ORGANIZATION ( #292, #295, #155 ) ;
#60 = CC_DESIGN_DATE_AND_TIME_ASSIGNMENT ( #253, #19, ( #99 ) ) ;
#61 = ORIENTED_EDGE ( 'NONE', *, *, #158, .F. ) ;
#62 = PLANE ( 'NONE',  #17 ) ;
#63 = DIRECTION ( 'NONE',  ( 3.583125477929755369E-31, 1.000000000000000000, 1.008560160451636042E-16 ) ) ;
#64 = DIRECTION ( 'NONE',  ( 3.583125477929755369E-31, 1.000000000000000000, 1.008560160451636042E-16 ) ) ;
#65 = CARTESIAN_POINT ( 'NONE',  ( 2.007601769834801995E-13, -7.041719095097282063E-15, 57.50000000000000711 ) ) ;
#66 = APPLICATION_PROTOCOL_DEFINITION ( 'international standard', 'config_control_design', 1994, #167 ) ;
#67 = COORDINATED_UNIVERSAL_TIME_OFFSET ( 1, 0, .AHEAD. ) ;
#68 = VECTOR ( 'NONE', #97, 1000.000000000000000 ) ;
#69 = VERTEX_POINT ( 'NONE', #242 ) ;
#70 = CARTESIAN_POINT ( 'NONE',  ( 4.510471322948019612E-15, -1.582060372725478679E-16, 1.291850330909263489 ) ) ;
#71 = PERSON_AND_ORGANIZATION_ROLE ( 'classification_officer' ) ;
#72 = AXIS2_PLACEMENT_3D ( 'NONE', #181, #279, #147 ) ;
#73 = ORIENTED_EDGE ( 'NONE', *, *, #145, .F. ) ;
#74 = ORGANIZATION ( 'UNSPECIFIED', 'UNSPECIFIED', '' ) ;
#75 = LOCAL_TIME ( 9, 21, 54.00000000000000000, #67 ) ;
#76 = ORIENTED_EDGE ( 'NONE', *, *, #105, .T. ) ;
#77 = PLANE ( 'NONE',  #332 ) ;
#78 = DATE_TIME_ROLE ( 'classification_date' ) ;
#79 = APPROVAL_DATE_TIME ( #316, #295 ) ;
#80 = ORIENTED_EDGE ( 'NONE', *, *, #176, .F. ) ;
#81 = DIRECTION ( 'NONE',  ( -3.491481338843133355E-15, 1.224646799147353207E-16, -1.000000000000000000 ) ) ;
#82 = VERTEX_POINT ( 'NONE', #102 ) ;
#83 = CIRCLE ( 'NONE', #240, 2.149999999999993694 ) ;
#84 = ADVANCED_FACE ( 'NONE', ( #106 ), #296, .T. ) ;
#85 = LOCAL_TIME ( 9, 21, 54.00000000000000000, #216 ) ;
#86 = FACE_OUTER_BOUND ( 'NONE', #323, .T. ) ;
#87 = PERSON_AND_ORGANIZATION_ROLE ( 'creator' ) ;
#88 = CALENDAR_DATE ( 2021, 3, 9 ) ;
#89 = EDGE_CURVE ( 'NONE', #135, #265, #320, .T. ) ;
#90 = AXIS2_PLACEMENT_3D ( 'NONE', #118, #231, #110 ) ;
#91 = CARTESIAN_POINT ( 'NONE',  ( 2.025059176529017346E-13, -7.102951435054648059E-15, 58.00000000000000000 ) ) ;
#92 = COORDINATED_UNIVERSAL_TIME_OFFSET ( 1, 0, .AHEAD. ) ;
#93 = DIRECTION ( 'NONE',  ( 3.491481338843133355E-15, -1.224646799147353207E-16, 1.000000000000000000 ) ) ;
#94 = ADVANCED_FACE ( 'NONE', ( #125 ), #308, .T. ) ;
#95 = FACE_OUTER_BOUND ( 'NONE', #291, .T. ) ;
#96 = VECTOR ( 'NONE', #263, 999.9999999999998863 ) ;
#97 = DIRECTION ( 'NONE',  ( -2.382254525458700509E-15, -0.7071067811865519026, -0.7071067811865431318 ) ) ;
#98 = DIRECTION ( 'NONE',  ( -3.491481338843133355E-15, 1.224646799147353207E-16, -1.000000000000000000 ) ) ;
#99 = PRODUCT_DEFINITION ( 'UNKNOWN', '', #143, #274 ) ;
#100 = APPLICATION_CONTEXT ( 'configuration controlled 3d designs of mechanical parts and assemblies' ) ;
#101 = LOCAL_TIME ( 9, 21, 54.00000000000000000, #92 ) ;
#102 = CARTESIAN_POINT ( 'NONE',  ( 2.018657302100289285E-13, -1.650000000000005684, 58.00000000000000000 ) ) ;
#103 = APPROVAL_PERSON_ORGANIZATION ( #15, #11, #114 ) ;
#104 = CARTESIAN_POINT ( 'NONE',  ( 0.0000000000000000000, 0.0000000000000000000, 0.0000000000000000000 ) ) ;
#105 = EDGE_CURVE ( 'NONE', #69, #32, #324, .T. ) ;
#106 = FACE_OUTER_BOUND ( 'NONE', #262, .T. ) ;
#107 = CONICAL_SURFACE ( 'NONE', #137, 1.649999999999998579, 0.7853981633974547183 ) ;
#108 = ADVANCED_BREP_SHAPE_REPRESENTATION ( '301', ( #272, #49, #53 ), #12 ) ;
#109 = CARTESIAN_POINT ( 'NONE',  ( 4.510471322948018823E-15, -2.149999999999991473, 1.291850330909263267 ) ) ;
#110 = DIRECTION ( 'NONE',  ( 4.275831445896959482E-31, 1.000000000000000000, 1.224646799147353207E-16 ) ) ;
#111 = ORIENTED_EDGE ( 'NONE', *, *, #256, .T. ) ;
#112 = DIRECTION ( 'NONE',  ( 0.0000000000000000000, 1.000000000000000000, 0.0000000000000000000 ) ) ;
#113 = ORIENTED_EDGE ( 'NONE', *, *, #163, .T. ) ;
#114 = APPROVAL_ROLE ( '' ) ;
#115 = CIRCLE ( 'NONE', #313, 2.149999999999998135 ) ;
#116 = ORIENTED_EDGE ( 'NONE', *, *, #190, .F. ) ;
#117 = EDGE_CURVE ( 'NONE', #298, #265, #122, .T. ) ;
#118 = CARTESIAN_POINT ( 'NONE',  ( 0.0000000000000000000, 0.0000000000000000000, 0.0000000000000000000 ) ) ;
#119 = AXIS2_PLACEMENT_3D ( 'NONE', #70, #288, #192 ) ;
#120 = CIRCLE ( 'NONE', #287, 2.149999999999993694 ) ;
#121 = ORIENTED_EDGE ( 'NONE', *, *, #123, .T. ) ;
#122 = LINE ( 'NONE', #281, #130 ) ;
#123 = EDGE_CURVE ( 'NONE', #328, #187, #115, .T. ) ;
#124 = DIRECTION ( 'NONE',  ( -3.491481338843133355E-15, 1.224646799147353207E-16, -1.000000000000000000 ) ) ;
#125 = FACE_OUTER_BOUND ( 'NONE', #213, .T. ) ;
#126 = FACE_OUTER_BOUND ( 'NONE', #3, .T. ) ;
#127 = CC_DESIGN_PERSON_AND_ORGANIZATION_ASSIGNMENT ( #327, #87, ( #99 ) ) ;
#128 = CARTESIAN_POINT ( 'NONE',  ( 6.284666409917640040E-14, 2.149999999999991473, 18.00000000000000000 ) ) ;
#129 = DIRECTION ( 'NONE',  ( 4.275831445896959482E-31, 1.000000000000000000, 1.224646799147353207E-16 ) ) ;
#130 = VECTOR ( 'NONE', #212, 1000.000000000000000 ) ;
#131 = ORIENTED_EDGE ( 'NONE', *, *, #305, .T. ) ;
#132 = CC_DESIGN_PERSON_AND_ORGANIZATION_ASSIGNMENT ( #142, #71, ( #199 ) ) ;
#133 = DIRECTION ( 'NONE',  ( 4.275831445896958607E-31, 1.000000000000000000, 1.224646799147353207E-16 ) ) ;
#134 = APPROVAL_STATUS ( 'not_yet_approved' ) ;
#135 = VERTEX_POINT ( 'NONE', #156 ) ;
#136 = DIRECTION ( 'NONE',  ( 0.0000000000000000000, 1.000000000000000000, 0.0000000000000000000 ) ) ;
#137 = AXIS2_PLACEMENT_3D ( 'NONE', #174, #247, #138 ) ;
#138 = DIRECTION ( 'NONE',  ( 0.0000000000000000000, 1.000000000000000000, 0.0000000000000000000 ) ) ;
#139 = APPROVAL_DATE_TIME ( #40, #185 ) ;
#140 = ORIENTED_EDGE ( 'NONE', *, *, #163, .F. ) ;
#141 = CARTESIAN_POINT ( 'NONE',  ( 4.510471322948019612E-15, -1.582060372725478679E-16, 1.291850330909263489 ) ) ;
#142 = PERSON_AND_ORGANIZATION ( #28, #74 ) ;
#143 = PRODUCT_DEFINITION_FORMATION_WITH_SPECIFIED_SOURCE ( 'ANY', '', #246, .NOT_KNOWN. ) ;
#144 = PERSON_AND_ORGANIZATION ( #28, #74 ) ;
#145 = EDGE_CURVE ( 'NONE', #336, #82, #314, .T. ) ;
#146 = PRODUCT_DEFINITION_SHAPE ( 'NONE', 'NONE',  #99 ) ;
#147 = DIRECTION ( 'NONE',  ( -3.583125477929755369E-31, -1.000000000000000000, -1.008560160451636042E-16 ) ) ;
#148 = APPROVAL_STATUS ( 'not_yet_approved' ) ;
#149 = DIRECTION ( 'NONE',  ( -3.491481338843133355E-15, 1.224646799147353207E-16, -1.000000000000000000 ) ) ;
#150 = APPROVAL_DATE_TIME ( #301, #11 ) ;
#151 = ADVANCED_FACE ( 'NONE', ( #47 ), #245, .T. ) ;
#152 = AXIS2_PLACEMENT_3D ( 'NONE', #331, #14, #41 ) ;
#153 =( LENGTH_UNIT ( ) NAMED_UNIT ( * ) SI_UNIT ( .MILLI., .METRE. ) );
#154 = UNCERTAINTY_MEASURE_WITH_UNIT (LENGTH_MEASURE( 1.000000000000000082E-05 ), #153, 'distance_accuracy_value', 'NONE');
#155 = APPROVAL_ROLE ( '' ) ;
#156 = CARTESIAN_POINT ( 'NONE',  ( 0.0000000000000000000, 0.0000000000000000000, 0.0000000000000000000 ) ) ;
#157 = CONICAL_SURFACE ( 'NONE', #119, 2.149999999999991473, 1.029744258676649649 ) ;
#158 = EDGE_CURVE ( 'NONE', #336, #328, #337, .T. ) ;
#159 = DIRECTION ( 'NONE',  ( -3.491481338843133355E-15, 1.224646799147353207E-16, -1.000000000000000000 ) ) ;
#160 = ORIENTED_EDGE ( 'NONE', *, *, #211, .T. ) ;
#161 = SHAPE_DEFINITION_REPRESENTATION ( #146, #108 ) ;
#162 = CARTESIAN_POINT ( 'NONE',  ( 4.773770384764701127E-15, 2.149999999999991473, 1.291850330909263711 ) ) ;
#163 = EDGE_CURVE ( 'NONE', #32, #69, #120, .T. ) ;
#164 = DIRECTION ( 'NONE',  ( -3.491481338843133355E-15, 1.224646799147353207E-16, -1.000000000000000000 ) ) ;
#165 = AXIS2_PLACEMENT_3D ( 'NONE', #261, #98, #233 ) ;
#166 = ORIENTED_EDGE ( 'NONE', *, *, #89, .T. ) ;
#167 = APPLICATION_CONTEXT ( 'configuration controlled 3d designs of mechanical parts and assemblies' ) ;
#168 = DIRECTION ( 'NONE',  ( -3.491481338843133355E-15, 1.224646799147353207E-16, -1.000000000000000000 ) ) ;
#169 = PERSON_AND_ORGANIZATION_ROLE ( 'design_owner' ) ;
#170 = CARTESIAN_POINT ( 'NONE',  ( 0.0000000000000000000, 0.0000000000000000000, 0.0000000000000000000 ) ) ;
#171 = ADVANCED_FACE ( 'NONE', ( #95 ), #257, .T. ) ;
#172 = AXIS2_PLACEMENT_3D ( 'NONE', #335, #124, #209 ) ;
#173 = ORIENTED_EDGE ( 'NONE', *, *, #211, .F. ) ;
#174 = CARTESIAN_POINT ( 'NONE',  ( 2.025059176529017346E-13, -7.102951435054648059E-15, 58.00000000000000000 ) ) ;
#175 = FACE_OUTER_BOUND ( 'NONE', #58, .T. ) ;
#176 = EDGE_CURVE ( 'NONE', #265, #27, #268, .T. ) ;
#177 = ORIENTED_EDGE ( 'NONE', *, *, #248, .F. ) ;
#178 = CIRCLE ( 'NONE', #182, 2.149999999999993694 ) ;
#179 = APPROVAL_STATUS ( 'not_yet_approved' ) ;
#180 = ORIENTED_EDGE ( 'NONE', *, *, #105, .F. ) ;
#181 = CARTESIAN_POINT ( 'NONE',  ( 4.510471322948019612E-15, -1.582060372725478679E-16, 1.291850330909263489 ) ) ;
#182 = AXIS2_PLACEMENT_3D ( 'NONE', #282, #159, #210 ) ;
#183 = DIRECTION ( 'NONE',  ( 0.0000000000000000000, 1.000000000000000000, 0.0000000000000000000 ) ) ;
#184 = CARTESIAN_POINT ( 'NONE',  ( 2.632990618166790993E-16, -2.149999999999992362, -2.632990618166808742E-16 ) ) ;
#185 = APPROVAL ( #179, 'UNSPECIFIED' ) ;
#186 = CIRCLE ( 'NONE', #276, 1.649999999999998579 ) ;
#187 = VERTEX_POINT ( 'NONE', #46 ) ;
#188 = ORIENTED_EDGE ( 'NONE', *, *, #145, .T. ) ;
#189 = CARTESIAN_POINT ( 'NONE',  ( 6.284666409917640040E-14, -2.204364238465235428E-15, 18.00000000000000000 ) ) ;
#190 = EDGE_CURVE ( 'NONE', #82, #187, #20, .T. ) ;
#191 = FACE_OUTER_BOUND ( 'NONE', #290, .T. ) ;
#192 = DIRECTION ( 'NONE',  ( -3.583125477929755369E-31, -1.000000000000000000, -1.008560160451636042E-16 ) ) ;
#193 = ORIENTED_EDGE ( 'NONE', *, *, #117, .F. ) ;
#194 = DIRECTION ( 'NONE',  ( 3.491481338843133355E-15, -1.224646799147353207E-16, 1.000000000000000000 ) ) ;
#195 = CYLINDRICAL_SURFACE ( 'NONE', #297, 2.149999999999995470 ) ;
#196 = CC_DESIGN_PERSON_AND_ORGANIZATION_ASSIGNMENT ( #198, #169, ( #246 ) ) ;
#197 = FACE_OUTER_BOUND ( 'NONE', #317, .T. ) ;
#198 = PERSON_AND_ORGANIZATION ( #28, #74 ) ;
#199 = SECURITY_CLASSIFICATION ( '', '', #48 ) ;
#200 = DIRECTION ( 'NONE',  ( -3.491481338843133355E-15, 1.224646799147353207E-16, -1.000000000000000000 ) ) ;
#201 = DIRECTION ( 'NONE',  ( -3.491481338843133355E-15, 1.224646799147353207E-16, -1.000000000000000000 ) ) ;
#202 = CC_DESIGN_PERSON_AND_ORGANIZATION_ASSIGNMENT ( #303, #280, ( #143 ) ) ;
#203 = CALENDAR_DATE ( 2021, 3, 9 ) ;
#204 = DIRECTION ( 'NONE',  ( -4.275831445896958607E-31, -1.000000000000000000, -1.224646799147353207E-16 ) ) ;
#205 = PERSON_AND_ORGANIZATION_ROLE ( 'creator' ) ;
#206 = ORIENTED_EDGE ( 'NONE', *, *, #34, .T. ) ;
#207 = AXIS2_PLACEMENT_3D ( 'NONE', #220, #214, #239 ) ;
#208 = ORIENTED_EDGE ( 'NONE', *, *, #226, .F. ) ;
#209 = DIRECTION ( 'NONE',  ( 4.275831445896957731E-31, 1.000000000000000000, 1.224646799147352961E-16 ) ) ;
#210 = DIRECTION ( 'NONE',  ( 0.0000000000000000000, 1.000000000000000000, 0.0000000000000000000 ) ) ;
#211 = EDGE_CURVE ( 'NONE', #298, #325, #178, .T. ) ;
#212 = DIRECTION ( 'NONE',  ( -3.491481338843133355E-15, 1.224646799147353207E-16, -1.000000000000000000 ) ) ;
#213 = EDGE_LOOP ( 'NONE', ( #116, #131, #311, #273 ) ) ;
#214 = DIRECTION ( 'NONE',  ( -3.491481338843133355E-15, 1.224646799147353207E-16, -1.000000000000000000 ) ) ;
#215 = LOCAL_TIME ( 9, 21, 54.00000000000000000, #225 ) ;
#216 = COORDINATED_UNIVERSAL_TIME_OFFSET ( 1, 0, .AHEAD. ) ;
#217 = DIRECTION ( 'NONE',  ( 0.0000000000000000000, 0.0000000000000000000, 1.000000000000000000 ) ) ;
#218 = CALENDAR_DATE ( 2021, 3, 9 ) ;
#219 = MECHANICAL_CONTEXT ( 'NONE', #100, 'mechanical' ) ;
#220 = CARTESIAN_POINT ( 'NONE',  ( 0.0000000000000000000, 0.0000000000000000000, 0.0000000000000000000 ) ) ;
#221 = VECTOR ( 'NONE', #21, 999.9999999999998863 ) ;
#222 = ADVANCED_FACE ( 'NONE', ( #126 ), #51, .T. ) ;
#223 = ORIENTED_EDGE ( 'NONE', *, *, #123, .F. ) ;
#224 = PLANE ( 'NONE',  #45 ) ;
#225 = COORDINATED_UNIVERSAL_TIME_OFFSET ( 1, 0, .AHEAD. ) ;
#226 = EDGE_CURVE ( 'NONE', #325, #27, #309, .T. ) ;
#227 = CARTESIAN_POINT ( 'NONE',  ( 6.284666409917640040E-14, 1.612241766361488991E-32, 18.00000000000000000 ) ) ;
#228 = EDGE_LOOP ( 'NONE', ( #188, #264, #223, #61 ) ) ;
#229 = DIRECTION ( 'NONE',  ( -3.491481338843133355E-15, 1.224646799147353207E-16, -1.000000000000000000 ) ) ;
#230 = ADVANCED_FACE ( 'NONE', ( #86 ), #195, .T. ) ;
#231 = DIRECTION ( 'NONE',  ( -3.491481338843133355E-15, 1.224646799147353207E-16, -1.000000000000000000 ) ) ;
#232 = ORIENTED_EDGE ( 'NONE', *, *, #307, .T. ) ;
#233 = DIRECTION ( 'NONE',  ( 0.0000000000000000000, 1.000000000000000000, 0.0000000000000000000 ) ) ;
#234 = PRODUCT_RELATED_PRODUCT_CATEGORY ( 'detail', '', ( #246 ) ) ;
#235 = CIRCLE ( 'NONE', #321, 2.149999999999991473 ) ;
#236 = ORIENTED_EDGE ( 'NONE', *, *, #89, .F. ) ;
#237 = EDGE_LOOP ( 'NONE', ( #238, #166, #29 ) ) ;
#238 = ORIENTED_EDGE ( 'NONE', *, *, #256, .F. ) ;
#239 = DIRECTION ( 'NONE',  ( 4.275831445896957731E-31, 1.000000000000000000, 1.224646799147352961E-16 ) ) ;
#240 = AXIS2_PLACEMENT_3D ( 'NONE', #189, #168, #136 ) ;
#241 = DIRECTION ( 'NONE',  ( 1.798245827342160317E-15, -0.8571673007021098911, 0.5150380749100582634 ) ) ;
#242 = CARTESIAN_POINT ( 'NONE',  ( 1.320667196031449515E-13, -2.149999999999995470, 18.00000000000000000 ) ) ;
#243 = FACE_OUTER_BOUND ( 'NONE', #228, .T. ) ;
#244 = ORIENTED_EDGE ( 'NONE', *, *, #248, .T. ) ;
#245 = CONICAL_SURFACE ( 'NONE', #72, 2.149999999999991473, 1.029744258676649649 ) ;
#246 = PRODUCT ( '301', '301', '', ( #219 ) ) ;
#247 = DIRECTION ( 'NONE',  ( -3.491481338843133355E-15, 1.224646799147353207E-16, -1.000000000000000000 ) ) ;
#248 = EDGE_CURVE ( 'NONE', #325, #298, #83, .T. ) ;
#249 = ORIENTED_EDGE ( 'NONE', *, *, #4, .T. ) ;
#250 = CARTESIAN_POINT ( 'NONE',  ( 2.632990618166795430E-16, -2.149999999999995470, -2.632990618166813179E-16 ) ) ;
#251 = CARTESIAN_POINT ( 'NONE',  ( 6.284666409917640040E-14, -2.204364238465235428E-15, 18.00000000000000000 ) ) ;
#252 = ORIENTED_EDGE ( 'NONE', *, *, #117, .T. ) ;
#253 = DATE_AND_TIME ( #203, #101 ) ;
#254 = CARTESIAN_POINT ( 'NONE',  ( 2.025059176529017346E-13, 1.649999999999991251, 58.00000000000000000 ) ) ;
#255 = COORDINATED_UNIVERSAL_TIME_OFFSET ( 1, 0, .AHEAD. ) ;
#256 = EDGE_CURVE ( 'NONE', #135, #27, #7, .T. ) ;
#257 = CYLINDRICAL_SURFACE ( 'NONE', #90, 2.149999999999995470 ) ;
#258 = CC_DESIGN_APPROVAL ( #185, ( #99 ) ) ;
#259 = CC_DESIGN_PERSON_AND_ORGANIZATION_ASSIGNMENT ( #329, #205, ( #143 ) ) ;
#260 = APPLICATION_PROTOCOL_DEFINITION ( 'international standard', 'config_control_design', 1994, #100 ) ;
#261 = CARTESIAN_POINT ( 'NONE',  ( 2.025059176529017346E-13, -7.102951435054648059E-15, 58.00000000000000000 ) ) ;
#262 = EDGE_LOOP ( 'NONE', ( #160, #13, #80, #193 ) ) ;
#263 = DIRECTION ( 'NONE',  ( 1.903218546456022717E-15, 0.8571673007021097801, 0.5150380749100585964 ) ) ;
#264 = ORIENTED_EDGE ( 'NONE', *, *, #190, .T. ) ;
#265 = VERTEX_POINT ( 'NONE', #162 ) ;
#266 = CARTESIAN_POINT ( 'NONE',  ( 2.025059176529017346E-13, 1.237301820696020758E-32, 58.00000000000000000 ) ) ;
#267 = CARTESIAN_POINT ( 'NONE',  ( 6.284666409917640040E-14, 1.612241766361488991E-32, 18.00000000000000000 ) ) ;
#268 = CIRCLE ( 'NONE', #2, 2.149999999999991473 ) ;
#269 = EDGE_LOOP ( 'NONE', ( #173, #177 ) ) ;
#270 = APPROVAL_ROLE ( '' ) ;
#271 = APPROVAL_PERSON_ORGANIZATION ( #144, #185, #270 ) ;
#272 = MANIFOLD_SOLID_BREP ( 'Corps-Déplacer/Copier1[1]', #1 ) ;
#273 = ORIENTED_EDGE ( 'NONE', *, *, #307, .F. ) ;
#274 = DESIGN_CONTEXT ( 'detailed design', #167, 'design' ) ;
#275 = CARTESIAN_POINT ( 'NONE',  ( 3.394186677287885799E-14, -2.149999999999995470, 18.00000000000000000 ) ) ;
#276 = AXIS2_PLACEMENT_3D ( 'NONE', #91, #229, #112 ) ;
#277 = CARTESIAN_POINT ( 'NONE',  ( 4.510471322948018823E-15, -2.149999999999991473, 1.291850330909263267 ) ) ;
#278 = ADVANCED_FACE ( 'NONE', ( #197 ), #224, .F. ) ;
#279 = DIRECTION ( 'NONE',  ( 3.491481338843133355E-15, -1.224646799147353207E-16, 1.000000000000000000 ) ) ;
#280 = PERSON_AND_ORGANIZATION_ROLE ( 'design_supplier' ) ;
#281 = CARTESIAN_POINT ( 'NONE',  ( 9.193037608678427110E-31, 2.149999999999992362, 2.632990618166799374E-16 ) ) ;
#282 = CARTESIAN_POINT ( 'NONE',  ( 6.284666409917640040E-14, -2.204364238465235428E-15, 18.00000000000000000 ) ) ;
#283 = CIRCLE ( 'NONE', #152, 2.149999999999998135 ) ;
#284 = ORIENTED_EDGE ( 'NONE', *, *, #34, .F. ) ;
#285 = CARTESIAN_POINT ( 'NONE',  ( 2.007601769834801995E-13, 2.149999999999991473, 57.50000000000000711 ) ) ;
#286 = ORIENTED_EDGE ( 'NONE', *, *, #312, .F. ) ;
#287 = AXIS2_PLACEMENT_3D ( 'NONE', #334, #149, #330 ) ;
#288 = DIRECTION ( 'NONE',  ( 3.491481338843133355E-15, -1.224646799147353207E-16, 1.000000000000000000 ) ) ;
#289 = ADVANCED_FACE ( 'NONE', ( #243 ), #107, .T. ) ;
#290 = EDGE_LOOP ( 'NONE', ( #113, #76 ) ) ;
#291 = EDGE_LOOP ( 'NONE', ( #121, #57, #140, #284 ) ) ;
#292 = PERSON_AND_ORGANIZATION ( #28, #74 ) ;
#293 = CARTESIAN_POINT ( 'NONE',  ( 9.193037608678442875E-31, 2.149999999999995470, 2.632990618166803812E-16 ) ) ;
#294 = DIRECTION ( 'NONE',  ( 1.000000000000000000, 0.0000000000000000000, 0.0000000000000000000 ) ) ;
#295 = APPROVAL ( #134, 'UNSPECIFIED' ) ;
#296 = CYLINDRICAL_SURFACE ( 'NONE', #207, 2.149999999999992362 ) ;
#297 = AXIS2_PLACEMENT_3D ( 'NONE', #170, #164, #129 ) ;
#298 = VERTEX_POINT ( 'NONE', #23 ) ;
#299 = CARTESIAN_POINT ( 'NONE',  ( 4.773770384764701127E-15, 2.149999999999991473, 1.291850330909263711 ) ) ;
#300 = DIRECTION ( 'NONE',  ( -3.491481338843133355E-15, 1.224646799147353207E-16, -1.000000000000000000 ) ) ;
#301 = DATE_AND_TIME ( #22, #302 ) ;
#302 = LOCAL_TIME ( 9, 21, 54.00000000000000000, #255 ) ;
#303 = PERSON_AND_ORGANIZATION ( #28, #74 ) ;
#304 = FACE_OUTER_BOUND ( 'NONE', #269, .T. ) ;
#305 = EDGE_CURVE ( 'NONE', #82, #336, #186, .T. ) ;
#306 = CC_DESIGN_SECURITY_CLASSIFICATION ( #199, ( #143 ) ) ;
#307 = EDGE_CURVE ( 'NONE', #187, #328, #283, .T. ) ;
#308 = CONICAL_SURFACE ( 'NONE', #39, 1.649999999999998579, 0.7853981633974547183 ) ;
#309 = LINE ( 'NONE', #184, #50 ) ;
#310 =( NAMED_UNIT ( * ) SI_UNIT ( $, .STERADIAN. ) SOLID_ANGLE_UNIT ( ) );
#311 = ORIENTED_EDGE ( 'NONE', *, *, #158, .T. ) ;
#312 = EDGE_CURVE ( 'NONE', #187, #69, #43, .T. ) ;
#313 = AXIS2_PLACEMENT_3D ( 'NONE', #65, #25, #183 ) ;
#314 = CIRCLE ( 'NONE', #165, 1.649999999999998579 ) ;
#315 = LINE ( 'NONE', #293, #31 ) ;
#316 = DATE_AND_TIME ( #10, #75 ) ;
#317 = EDGE_LOOP ( 'NONE', ( #73, #55 ) ) ;
#318 = DIRECTION ( 'NONE',  ( -3.491481338843133355E-15, 1.224646799147353207E-16, -1.000000000000000000 ) ) ;
#319 = ADVANCED_FACE ( 'NONE', ( #304 ), #62, .T. ) ;
#320 = LINE ( 'NONE', #299, #96 ) ;
#321 = AXIS2_PLACEMENT_3D ( 'NONE', #38, #300, #64 ) ;
#322 = AXIS2_PLACEMENT_3D ( 'NONE', #251, #326, #24 ) ;
#323 = EDGE_LOOP ( 'NONE', ( #286, #232, #206, #180 ) ) ;
#324 = CIRCLE ( 'NONE', #322, 2.149999999999993694 ) ;
#325 = VERTEX_POINT ( 'NONE', #275 ) ;
#326 = DIRECTION ( 'NONE',  ( -3.491481338843133355E-15, 1.224646799147353207E-16, -1.000000000000000000 ) ) ;
#327 = PERSON_AND_ORGANIZATION ( #28, #74 ) ;
#328 = VERTEX_POINT ( 'NONE', #285 ) ;
#329 = PERSON_AND_ORGANIZATION ( #28, #74 ) ;
#330 = DIRECTION ( 'NONE',  ( 0.0000000000000000000, 1.000000000000000000, 0.0000000000000000000 ) ) ;
#331 = CARTESIAN_POINT ( 'NONE',  ( 2.007601769834801995E-13, -7.041719095097282063E-15, 57.50000000000000711 ) ) ;
#332 = AXIS2_PLACEMENT_3D ( 'NONE', #267, #194, #36 ) ;
#333 = CARTESIAN_POINT ( 'NONE',  ( 2.027079843747610438E-13, -1.650000000000005684, 58.00000000000000000 ) ) ;
#334 = CARTESIAN_POINT ( 'NONE',  ( 6.284666409917640040E-14, -2.204364238465235428E-15, 18.00000000000000000 ) ) ;
#335 = CARTESIAN_POINT ( 'NONE',  ( 0.0000000000000000000, 0.0000000000000000000, 0.0000000000000000000 ) ) ;
#336 = VERTEX_POINT ( 'NONE', #52 ) ;
#337 = LINE ( 'NONE', #254, #221 ) ;
ENDSEC;
END-ISO-10303-21;
