ISO-10303-21;
HEADER;
FILE_DESCRIPTION (( 'STEP AP203' ),
    '1' );
FILE_NAME ('29769.step',
    '2021-11-09T08:31:29',
    ( '' ),
    ( '' ),
    'SwSTEP 2.0',
    'SolidWorks 2019',
    '' );
FILE_SCHEMA (( 'CONFIG_CONTROL_DESIGN' ));
ENDSEC;

DATA;
#1 = FACE_OUTER_BOUND ( 'NONE', #64, .T. ) ;
#2 = ORIENTED_EDGE ( 'NONE', *, *, #54, .F. ) ;
#3 = DESIGN_CONTEXT ( 'detailed design', #193, 'design' ) ;
#4 = CC_DESIGN_PERSON_AND_ORGANIZATION_ASSIGNMENT ( #120, #162, ( #86 ) ) ;
#5 = PERSON_AND_ORGANIZATION_ROLE ( 'design_owner' ) ;
#6 = CARTESIAN_POINT ( 'NONE',  ( 6.284666409917640040E-14, -2.204364238465235428E-15, 18.00000000000000000 ) ) ;
#7 = ORIENTED_EDGE ( 'NONE', *, *, #90, .T. ) ;
#8 = ADVANCED_BREP_SHAPE_REPRESENTATION ( '29769', ( #153, #150, #41 ), #128 ) ;
#9 = CARTESIAN_POINT ( 'NONE',  ( 2.094888803305880013E-13, 2.999999999999991562, 60.00000000000000000 ) ) ;
#10 = DIRECTION ( 'NONE',  ( -4.275831445896958607E-31, -1.000000000000000000, -1.224646799147353207E-16 ) ) ;
#11 = PERSON ( 'UNSPECIFIED', 'UNSPECIFIED', 'UNSPECIFIED', ('UNSPECIFIED'), ('UNSPECIFIED'), ('UNSPECIFIED') ) ;
#12 = ORIENTED_EDGE ( 'NONE', *, *, #116, .T. ) ;
#13 = COORDINATED_UNIVERSAL_TIME_OFFSET ( 1, 0, .AHEAD. ) ;
#14 = APPROVAL ( #182, 'UNSPECIFIED' ) ;
#15 = ORIENTED_EDGE ( 'NONE', *, *, #67, .F. ) ;
#16 = CALENDAR_DATE ( 2021, 9, 11 ) ;
#17 = AXIS2_PLACEMENT_3D ( 'NONE', #158, #77, #137 ) ;
#18 = DIRECTION ( 'NONE',  ( 3.491481338843133355E-15, -1.224646799147353207E-16, 1.000000000000000000 ) ) ;
#19 = APPROVAL_ROLE ( '' ) ;
#20 = COORDINATED_UNIVERSAL_TIME_OFFSET ( 1, 0, .AHEAD. ) ;
#21 = APPLICATION_PROTOCOL_DEFINITION ( 'international standard', 'config_control_design', 1994, #80 ) ;
#22 = CONICAL_SURFACE ( 'NONE', #151, 2.999999999999998668, 0.7853981633974410625 ) ;
#23 = AXIS2_PLACEMENT_3D ( 'NONE', #74, #40, #10 ) ;
#24 = CARTESIAN_POINT ( 'NONE',  ( -1.175857363029035906E-30, 4.124352434214896021E-32, -3.367789339004871654E-16 ) ) ;
#25 = CC_DESIGN_PERSON_AND_ORGANIZATION_ASSIGNMENT ( #107, #175, ( #198 ) ) ;
#26 = EDGE_LOOP ( 'NONE', ( #78 ) ) ;
#27 = FACE_OUTER_BOUND ( 'NONE', #154, .T. ) ;
#28 = ORGANIZATION ( 'UNSPECIFIED', 'UNSPECIFIED', '' ) ;
#29 = DATE_TIME_ROLE ( 'classification_date' ) ;
#30 = APPROVAL_DATE_TIME ( #50, #55 ) ;
#31 =( NAMED_UNIT ( * ) PLANE_ANGLE_UNIT ( ) SI_UNIT ( $, .RADIAN. ) );
#32 = LOCAL_TIME ( 9, 31, 29.00000000000000000, #155 ) ;
#33 = LOCAL_TIME ( 9, 31, 29.00000000000000000, #20 ) ;
#34 = CALENDAR_DATE ( 2021, 9, 11 ) ;
#35 = DIRECTION ( 'NONE',  ( -3.491481338843133355E-15, 1.224646799147353207E-16, -1.000000000000000000 ) ) ;
#36 = ORIENTED_EDGE ( 'NONE', *, *, #90, .F. ) ;
#37 = FACE_OUTER_BOUND ( 'NONE', #65, .T. ) ;
#38 = DIRECTION ( 'NONE',  ( -3.491481338843133355E-15, 1.224646799147353207E-16, -1.000000000000000000 ) ) ;
#39 = APPROVAL_DATE_TIME ( #46, #69 ) ;
#40 = DIRECTION ( 'NONE',  ( 3.491481338843133355E-15, -1.224646799147353207E-16, 1.000000000000000000 ) ) ;
#41 = AXIS2_PLACEMENT_3D ( 'NONE', #122, #114, #166 ) ;
#42 = CARTESIAN_POINT ( 'NONE',  ( 6.284666409917640040E-14, -2.204364238465235428E-15, 18.00000000000000000 ) ) ;
#43 = DIRECTION ( 'NONE',  ( 4.275831445896958607E-31, 1.000000000000000000, 1.224646799147353207E-16 ) ) ;
#44 = SECURITY_CLASSIFICATION_LEVEL ( 'unclassified' ) ;
#45 = APPLICATION_PROTOCOL_DEFINITION ( 'international standard', 'config_control_design', 1994, #193 ) ;
#46 = DATE_AND_TIME ( #156, #102 ) ;
#47 = CARTESIAN_POINT ( 'NONE',  ( 2.077431396611663905E-13, -7.286648454926750781E-15, 59.49999999999999289 ) ) ;
#48 = ADVANCED_FACE ( 'NONE', ( #195, #123 ), #188, .T. ) ;
#49 = APPROVAL_PERSON_ORGANIZATION ( #148, #14, #101 ) ;
#50 = DATE_AND_TIME ( #83, #33 ) ;
#51 = CARTESIAN_POINT ( 'NONE',  ( 6.284666409917640040E-14, 3.499999999999991562, 18.00000000000000000 ) ) ;
#52 = VERTEX_POINT ( 'NONE', #9 ) ;
#53 = CIRCLE ( 'NONE', #164, 3.499999999999993783 ) ;
#54 = EDGE_CURVE ( 'NONE', #149, #149, #85, .T. ) ;
#55 = APPROVAL ( #68, 'UNSPECIFIED' ) ;
#56 = CLOSED_SHELL ( 'NONE', ( #126, #127, #113 ) ) ;
#57 = PRODUCT ( '29769', '29769', '', ( #112 ) ) ;
#58 = ADVANCED_FACE ( 'NONE', ( #1 ), #62, .F. ) ;
#59 = PLANE ( 'NONE',  #70 ) ;
#60 = AXIS2_PLACEMENT_3D ( 'NONE', #6, #35, #134 ) ;
#61 = EDGE_LOOP ( 'NONE', ( #117 ) ) ;
#62 = PLANE ( 'NONE',  #84 ) ;
#63 = DIRECTION ( 'NONE',  ( -3.491481338843133355E-15, 1.224646799147353207E-16, -1.000000000000000000 ) ) ;
#64 = EDGE_LOOP ( 'NONE', ( #161 ) ) ;
#65 = EDGE_LOOP ( 'NONE', ( #2 ) ) ;
#66 = DIRECTION ( 'NONE',  ( 0.0000000000000000000, 1.000000000000000000, 0.0000000000000000000 ) ) ;
#67 = EDGE_CURVE ( 'NONE', #142, #142, #111, .T. ) ;
#68 = APPROVAL_STATUS ( 'not_yet_approved' ) ;
#69 = APPROVAL ( #139, 'UNSPECIFIED' ) ;
#70 = AXIS2_PLACEMENT_3D ( 'NONE', #24, #187, #106 ) ;
#71 =( LENGTH_UNIT ( ) NAMED_UNIT ( * ) SI_UNIT ( .MILLI., .METRE. ) );
#72 = FACE_OUTER_BOUND ( 'NONE', #174, .T. ) ;
#73 = EDGE_LOOP ( 'NONE', ( #7 ) ) ;
#74 = CARTESIAN_POINT ( 'NONE',  ( 6.284666409917640040E-14, 2.624579619658242603E-32, 18.00000000000000000 ) ) ;
#75 = DATE_AND_TIME ( #135, #163 ) ;
#76 = DIRECTION ( 'NONE',  ( -3.491481338843133355E-15, 1.224646799147353207E-16, -1.000000000000000000 ) ) ;
#77 = DIRECTION ( 'NONE',  ( -3.491481338843133355E-15, 1.224646799147353207E-16, -1.000000000000000000 ) ) ;
#78 = ORIENTED_EDGE ( 'NONE', *, *, #183, .T. ) ;
#79 = DATE_AND_TIME ( #34, #32 ) ;
#80 = APPLICATION_CONTEXT ( 'configuration controlled 3d designs of mechanical parts and assemblies' ) ;
#81 = DIRECTION ( 'NONE',  ( -4.275831445896958607E-31, -1.000000000000000000, -1.224646799147353207E-16 ) ) ;
#82 = PERSON_AND_ORGANIZATION_ROLE ( 'design_supplier' ) ;
#83 = CALENDAR_DATE ( 2021, 9, 11 ) ;
#84 = AXIS2_PLACEMENT_3D ( 'NONE', #119, #89, #43 ) ;
#85 = CIRCLE ( 'NONE', #17, 3.499999999999991562 ) ;
#86 = PRODUCT_DEFINITION ( 'UNKNOWN', '', #87, #3 ) ;
#87 = PRODUCT_DEFINITION_FORMATION_WITH_SPECIFIED_SOURCE ( 'ANY', '', #57, .NOT_KNOWN. ) ;
#88 = EDGE_LOOP ( 'NONE', ( #15 ) ) ;
#89 = DIRECTION ( 'NONE',  ( -3.491481338843133355E-15, 1.224646799147353207E-16, -1.000000000000000000 ) ) ;
#90 = EDGE_CURVE ( 'NONE', #160, #160, #53, .T. ) ;
#91 = DIRECTION ( 'NONE',  ( 0.0000000000000000000, 1.000000000000000000, 0.0000000000000000000 ) ) ;
#92 = COORDINATED_UNIVERSAL_TIME_OFFSET ( 1, 0, .AHEAD. ) ;
#93 = DIRECTION ( 'NONE',  ( 0.0000000000000000000, 1.000000000000000000, 0.0000000000000000000 ) ) ;
#94 = FACE_BOUND ( 'NONE', #138, .T. ) ;
#95 = APPROVAL_DATE_TIME ( #79, #14 ) ;
#96 = AXIS2_PLACEMENT_3D ( 'NONE', #136, #171, #91 ) ;
#97 = PERSON_AND_ORGANIZATION ( #11, #28 ) ;
#98 = CARTESIAN_POINT ( 'NONE',  ( -8.551737199941402409E-31, 3.499999999999991562, -2.449314880994017066E-16 ) ) ;
#99 = DIRECTION ( 'NONE',  ( 0.0000000000000000000, 1.000000000000000000, 0.0000000000000000000 ) ) ;
#100 = LOCAL_TIME ( 9, 31, 29.00000000000000000, #13 ) ;
#101 = APPROVAL_ROLE ( '' ) ;
#102 = LOCAL_TIME ( 9, 31, 29.00000000000000000, #118 ) ;
#103 = DIRECTION ( 'NONE',  ( 4.275831445896958607E-31, 1.000000000000000000, 1.224646799147353207E-16 ) ) ;
#104 = PERSON_AND_ORGANIZATION ( #11, #28 ) ;
#105 = AXIS2_PLACEMENT_3D ( 'NONE', #47, #110, #99 ) ;
#106 = DIRECTION ( 'NONE',  ( -4.275831445896958607E-31, -1.000000000000000000, -1.224646799147353207E-16 ) ) ;
#107 = PERSON_AND_ORGANIZATION ( #11, #28 ) ;
#108 = CARTESIAN_POINT ( 'NONE',  ( 0.0000000000000000000, 0.0000000000000000000, 0.0000000000000000000 ) ) ;
#109 = DATE_AND_TIME ( #16, #100 ) ;
#110 = DIRECTION ( 'NONE',  ( -3.491481338843133355E-15, 1.224646799147353207E-16, -1.000000000000000000 ) ) ;
#111 = CIRCLE ( 'NONE', #60, 3.499999999999993783 ) ;
#112 = MECHANICAL_CONTEXT ( 'NONE', #80, 'mechanical' ) ;
#113 = ADVANCED_FACE ( 'NONE', ( #190 ), #152, .T. ) ;
#114 = DIRECTION ( 'NONE',  ( 0.0000000000000000000, 0.0000000000000000000, 1.000000000000000000 ) ) ;
#115 = DIRECTION ( 'NONE',  ( 4.275831445896958607E-31, 1.000000000000000000, 1.224646799147353207E-16 ) ) ;
#116 = EDGE_CURVE ( 'NONE', #52, #52, #132, .T. ) ;
#117 = ORIENTED_EDGE ( 'NONE', *, *, #67, .T. ) ;
#118 = COORDINATED_UNIVERSAL_TIME_OFFSET ( 1, 0, .AHEAD. ) ;
#119 = CARTESIAN_POINT ( 'NONE',  ( 2.094888803305880013E-13, 2.249639673992774369E-32, 60.00000000000000000 ) ) ;
#120 = PERSON_AND_ORGANIZATION ( #11, #28 ) ;
#121 = AXIS2_PLACEMENT_3D ( 'NONE', #170, #18, #81 ) ;
#122 = CARTESIAN_POINT ( 'NONE',  ( 0.0000000000000000000, 0.0000000000000000000, 0.0000000000000000000 ) ) ;
#123 = FACE_OUTER_BOUND ( 'NONE', #26, .T. ) ;
#124 = VERTEX_POINT ( 'NONE', #144 ) ;
#125 = APPROVAL_PERSON_ORGANIZATION ( #97, #55, #186 ) ;
#126 = ADVANCED_FACE ( 'NONE', ( #72 ), #59, .F. ) ;
#127 = ADVANCED_FACE ( 'NONE', ( #37, #173 ), #130, .T. ) ;
#128 =( GEOMETRIC_REPRESENTATION_CONTEXT ( 3 ) GLOBAL_UNCERTAINTY_ASSIGNED_CONTEXT ( ( #176 ) ) GLOBAL_UNIT_ASSIGNED_CONTEXT ( ( #71, #31, #140 ) ) REPRESENTATION_CONTEXT ( 'NONE', 'WORKASPACE' ) );
#129 = CC_DESIGN_DATE_AND_TIME_ASSIGNMENT ( #109, #29, ( #198 ) ) ;
#130 = CYLINDRICAL_SURFACE ( 'NONE', #169, 3.499999999999992895 ) ;
#131 = PRODUCT_DEFINITION_SHAPE ( 'NONE', 'NONE',  #86 ) ;
#132 = CIRCLE ( 'NONE', #96, 2.999999999999998668 ) ;
#133 = CC_DESIGN_SECURITY_CLASSIFICATION ( #198, ( #87 ) ) ;
#134 = DIRECTION ( 'NONE',  ( 0.0000000000000000000, 1.000000000000000000, 0.0000000000000000000 ) ) ;
#135 = CALENDAR_DATE ( 2021, 9, 11 ) ;
#136 = CARTESIAN_POINT ( 'NONE',  ( 2.094888803305880013E-13, -7.347880794884118356E-15, 60.00000000000000000 ) ) ;
#137 = DIRECTION ( 'NONE',  ( 4.275831445896957731E-31, 1.000000000000000000, 1.224646799147353207E-16 ) ) ;
#138 = EDGE_LOOP ( 'NONE', ( #12 ) ) ;
#139 = APPROVAL_STATUS ( 'not_yet_approved' ) ;
#140 =( NAMED_UNIT ( * ) SI_UNIT ( $, .STERADIAN. ) SOLID_ANGLE_UNIT ( ) );
#141 = ORIENTED_EDGE ( 'NONE', *, *, #54, .T. ) ;
#142 = VERTEX_POINT ( 'NONE', #51 ) ;
#143 = PERSON_AND_ORGANIZATION ( #11, #28 ) ;
#144 = CARTESIAN_POINT ( 'NONE',  ( 2.077431396611663905E-13, 3.499999999999991562, 59.49999999999999289 ) ) ;
#145 = ADVANCED_FACE ( 'NONE', ( #194 ), #184, .F. ) ;
#146 = CC_DESIGN_PERSON_AND_ORGANIZATION_ASSIGNMENT ( #143, #82, ( #87 ) ) ;
#147 = SHAPE_DEFINITION_REPRESENTATION ( #131, #8 ) ;
#148 = PERSON_AND_ORGANIZATION ( #11, #28 ) ;
#149 = VERTEX_POINT ( 'NONE', #98 ) ;
#150 = MANIFOLD_SOLID_BREP ( 'Corps-Déplacer/Copier1[2]', #56 ) ;
#151 = AXIS2_PLACEMENT_3D ( 'NONE', #177, #180, #66 ) ;
#152 = PLANE ( 'NONE',  #23 ) ;
#153 = MANIFOLD_SOLID_BREP ( 'Corps-Déplacer/Copier1[1]', #181 ) ;
#154 = EDGE_LOOP ( 'NONE', ( #197 ) ) ;
#155 = COORDINATED_UNIVERSAL_TIME_OFFSET ( 1, 0, .AHEAD. ) ;
#156 = CALENDAR_DATE ( 2021, 9, 11 ) ;
#157 = CC_DESIGN_APPROVAL ( #55, ( #198 ) ) ;
#158 = CARTESIAN_POINT ( 'NONE',  ( -2.351714726058071812E-30, 8.248704868429792041E-32, -6.735578678009743307E-16 ) ) ;
#159 = CARTESIAN_POINT ( 'NONE',  ( 0.0000000000000000000, 0.0000000000000000000, 0.0000000000000000000 ) ) ;
#160 = VERTEX_POINT ( 'NONE', #165 ) ;
#161 = ORIENTED_EDGE ( 'NONE', *, *, #116, .F. ) ;
#162 = PERSON_AND_ORGANIZATION_ROLE ( 'creator' ) ;
#163 = LOCAL_TIME ( 9, 31, 29.00000000000000000, #92 ) ;
#164 = AXIS2_PLACEMENT_3D ( 'NONE', #42, #76, #93 ) ;
#165 = CARTESIAN_POINT ( 'NONE',  ( 6.284666409917640040E-14, 3.499999999999991562, 18.00000000000000000 ) ) ;
#166 = DIRECTION ( 'NONE',  ( 1.000000000000000000, 0.0000000000000000000, 0.0000000000000000000 ) ) ;
#167 = CC_DESIGN_APPROVAL ( #14, ( #86 ) ) ;
#168 = CC_DESIGN_APPROVAL ( #69, ( #87 ) ) ;
#169 = AXIS2_PLACEMENT_3D ( 'NONE', #159, #63, #115 ) ;
#170 = CARTESIAN_POINT ( 'NONE',  ( 6.284666409917640040E-14, 2.624579619658242603E-32, 18.00000000000000000 ) ) ;
#171 = DIRECTION ( 'NONE',  ( -3.491481338843133355E-15, 1.224646799147353207E-16, -1.000000000000000000 ) ) ;
#172 = DATE_TIME_ROLE ( 'creation_date' ) ;
#173 = FACE_OUTER_BOUND ( 'NONE', #61, .T. ) ;
#174 = EDGE_LOOP ( 'NONE', ( #141 ) ) ;
#175 = PERSON_AND_ORGANIZATION_ROLE ( 'classification_officer' ) ;
#176 = UNCERTAINTY_MEASURE_WITH_UNIT (LENGTH_MEASURE( 1.000000000000000082E-05 ), #71, 'distance_accuracy_value', 'NONE');
#177 = CARTESIAN_POINT ( 'NONE',  ( 2.094888803305880013E-13, -7.347880794884118356E-15, 60.00000000000000000 ) ) ;
#178 = PRODUCT_RELATED_PRODUCT_CATEGORY ( 'detail', '', ( #57 ) ) ;
#179 = PERSON_AND_ORGANIZATION ( #11, #28 ) ;
#180 = DIRECTION ( 'NONE',  ( -3.491481338843133355E-15, 1.224646799147353207E-16, -1.000000000000000000 ) ) ;
#181 = CLOSED_SHELL ( 'NONE', ( #145, #48, #189, #58 ) ) ;
#182 = APPROVAL_STATUS ( 'not_yet_approved' ) ;
#183 = EDGE_CURVE ( 'NONE', #124, #124, #192, .T. ) ;
#184 = PLANE ( 'NONE',  #121 ) ;
#185 = EDGE_LOOP ( 'NONE', ( #36 ) ) ;
#186 = APPROVAL_ROLE ( '' ) ;
#187 = DIRECTION ( 'NONE',  ( 3.491481338843133355E-15, -1.224646799147353207E-16, 1.000000000000000000 ) ) ;
#188 = CYLINDRICAL_SURFACE ( 'NONE', #201, 3.499999999999996003 ) ;
#189 = ADVANCED_FACE ( 'NONE', ( #27, #94 ), #22, .T. ) ;
#190 = FACE_OUTER_BOUND ( 'NONE', #88, .T. ) ;
#191 = PERSON_AND_ORGANIZATION ( #11, #28 ) ;
#192 = CIRCLE ( 'NONE', #105, 3.499999999999998668 ) ;
#193 = APPLICATION_CONTEXT ( 'configuration controlled 3d designs of mechanical parts and assemblies' ) ;
#194 = FACE_OUTER_BOUND ( 'NONE', #73, .T. ) ;
#195 = FACE_OUTER_BOUND ( 'NONE', #185, .T. ) ;
#196 = PERSON_AND_ORGANIZATION_ROLE ( 'creator' ) ;
#197 = ORIENTED_EDGE ( 'NONE', *, *, #183, .F. ) ;
#198 = SECURITY_CLASSIFICATION ( '', '', #44 ) ;
#199 = CC_DESIGN_DATE_AND_TIME_ASSIGNMENT ( #75, #172, ( #86 ) ) ;
#200 = APPROVAL_PERSON_ORGANIZATION ( #191, #69, #19 ) ;
#201 = AXIS2_PLACEMENT_3D ( 'NONE', #108, #38, #103 ) ;
#202 = CC_DESIGN_PERSON_AND_ORGANIZATION_ASSIGNMENT ( #179, #5, ( #57 ) ) ;
#203 = CC_DESIGN_PERSON_AND_ORGANIZATION_ASSIGNMENT ( #104, #196, ( #87 ) ) ;
ENDSEC;
END-ISO-10303-21;
