ISO-10303-21;
HEADER;
FILE_DESCRIPTION (( 'STEP AP203' ),
    '1' );
FILE_NAME ('29764.step',
    '2021-09-03T07:21:54',
    ( '' ),
    ( '' ),
    'SwSTEP 2.0',
    'SolidWorks 2019',
    '' );
FILE_SCHEMA (( 'CONFIG_CONTROL_DESIGN' ));
ENDSEC;

DATA;
#1 = AXIS2_PLACEMENT_3D ( 'NONE', #161, #165, #316 ) ;
#2 = EDGE_CURVE ( 'NONE', #217, #58, #264, .T. ) ;
#3 = ORIENTED_EDGE ( 'NONE', *, *, #105, .F. ) ;
#4 = ORIENTED_EDGE ( 'NONE', *, *, #158, .F. ) ;
#5 = EDGE_LOOP ( 'NONE', ( #57, #48, #270, #4 ) ) ;
#6 = ORIENTED_EDGE ( 'NONE', *, *, #229, .F. ) ;
#7 = VECTOR ( 'NONE', #56, 1000.000000000000000 ) ;
#8 = DIRECTION ( 'NONE',  ( -3.491481338843133355E-15, 1.224646799147353207E-16, -1.000000000000000000 ) ) ;
#9 = PERSON_AND_ORGANIZATION ( #132, #221 ) ;
#10 = CARTESIAN_POINT ( 'NONE',  ( 2.444036937190193601E-13, -8.572527594031472993E-15, 70.00000000000000000 ) ) ;
#11 = CARTESIAN_POINT ( 'NONE',  ( 4.384198161919167535E-14, -3.149999999999995914, 23.00000000000000000 ) ) ;
#12 = ADVANCED_FACE ( 'NONE', ( #91 ), #334, .T. ) ;
#13 = DIRECTION ( 'NONE',  ( 0.0000000000000000000, 1.000000000000000000, 0.0000000000000000000 ) ) ;
#14 = LINE ( 'NONE', #50, #320 ) ;
#15 = DIRECTION ( 'NONE',  ( 0.0000000000000000000, 1.000000000000000000, 0.0000000000000000000 ) ) ;
#16 = DIRECTION ( 'NONE',  ( 0.0000000000000000000, 1.000000000000000000, 0.0000000000000000000 ) ) ;
#17 = DIRECTION ( 'NONE',  ( 0.0000000000000000000, 0.0000000000000000000, 1.000000000000000000 ) ) ;
#18 = DIRECTION ( 'NONE',  ( 1.798245827342160317E-15, -0.8571673007021098911, 0.5150380749100582634 ) ) ;
#19 = AXIS2_PLACEMENT_3D ( 'NONE', #20, #119, #181 ) ;
#20 = CARTESIAN_POINT ( 'NONE',  ( 0.0000000000000000000, 0.0000000000000000000, 0.0000000000000000000 ) ) ;
#21 = APPROVAL_ROLE ( '' ) ;
#22 = SECURITY_CLASSIFICATION_LEVEL ( 'unclassified' ) ;
#23 = FACE_OUTER_BOUND ( 'NONE', #192, .T. ) ;
#24 = CC_DESIGN_PERSON_AND_ORGANIZATION_ASSIGNMENT ( #283, #46, ( #243 ) ) ;
#25 = AXIS2_PLACEMENT_3D ( 'NONE', #140, #17, #275 ) ;
#26 = DIRECTION ( 'NONE',  ( 4.275831445896957731E-31, 1.000000000000000000, 1.224646799147352961E-16 ) ) ;
#27 = COORDINATED_UNIVERSAL_TIME_OFFSET ( 1, 0, .AHEAD. ) ;
#28 = ADVANCED_FACE ( 'NONE', ( #77 ), #185, .T. ) ;
#29 = ORIENTED_EDGE ( 'NONE', *, *, #105, .T. ) ;
#30 = VERTEX_POINT ( 'NONE', #117 ) ;
#31 = PERSON_AND_ORGANIZATION ( #132, #221 ) ;
#32 = ORIENTED_EDGE ( 'NONE', *, *, #38, .T. ) ;
#33 = AXIS2_PLACEMENT_3D ( 'NONE', #226, #274, #174 ) ;
#34 = AXIS2_PLACEMENT_3D ( 'NONE', #253, #199, #16 ) ;
#35 = CARTESIAN_POINT ( 'NONE',  ( 2.435245763541855111E-13, -2.450000000000008615, 70.00000000000000000 ) ) ;
#36 = CARTESIAN_POINT ( 'NONE',  ( 2.419596567818291352E-13, -8.486802318091157127E-15, 69.29999999999999716 ) ) ;
#37 = PERSON_AND_ORGANIZATION ( #132, #221 ) ;
#38 = EDGE_CURVE ( 'NONE', #100, #282, #227, .T. ) ;
#39 = APPROVAL_DATE_TIME ( #204, #213 ) ;
#40 = AXIS2_PLACEMENT_3D ( 'NONE', #224, #301, #90 ) ;
#41 = VECTOR ( 'NONE', #230, 1000.000000000000000 ) ;
#42 = CARTESIAN_POINT ( 'NONE',  ( 6.608364961528502270E-15, -3.149999999999992362, 1.892710949936829978 ) ) ;
#43 = DIRECTION ( 'NONE',  ( -3.491481338843133355E-15, 1.224646799147353207E-16, -1.000000000000000000 ) ) ;
#44 = CARTESIAN_POINT ( 'NONE',  ( 0.0000000000000000000, 0.0000000000000000000, 0.0000000000000000000 ) ) ;
#45 = APPROVAL_DATE_TIME ( #144, #300 ) ;
#46 = PERSON_AND_ORGANIZATION_ROLE ( 'creator' ) ;
#47 = MANIFOLD_SOLID_BREP ( 'Corps-Déplacer/Copier1[2]', #88 ) ;
#48 = ORIENTED_EDGE ( 'NONE', *, *, #92, .T. ) ;
#49 = PERSON_AND_ORGANIZATION_ROLE ( 'creator' ) ;
#50 = CARTESIAN_POINT ( 'NONE',  ( 2.447037321848104625E-13, -2.450000000000008615, 70.00000000000000000 ) ) ;
#51 = ADVANCED_FACE ( 'NONE', ( #63 ), #99, .T. ) ;
#52 = CARTESIAN_POINT ( 'NONE',  ( 0.0000000000000000000, 0.0000000000000000000, 0.0000000000000000000 ) ) ;
#53 = APPROVAL_DATE_TIME ( #75, #232 ) ;
#54 = CIRCLE ( 'NONE', #118, 3.149999999999991918 ) ;
#55 = EDGE_LOOP ( 'NONE', ( #263, #187, #312, #134 ) ) ;
#56 = DIRECTION ( 'NONE',  ( -3.491481338843133355E-15, 1.224646799147353207E-16, -1.000000000000000000 ) ) ;
#57 = ORIENTED_EDGE ( 'NONE', *, *, #254, .F. ) ;
#58 = VERTEX_POINT ( 'NONE', #235 ) ;
#59 = EDGE_LOOP ( 'NONE', ( #108, #289, #79, #290 ) ) ;
#60 = AXIS2_PLACEMENT_3D ( 'NONE', #171, #142, #247 ) ;
#61 = CIRCLE ( 'NONE', #94, 3.149999999999994138 ) ;
#62 = ORIENTED_EDGE ( 'NONE', *, *, #259, .T. ) ;
#63 = FACE_OUTER_BOUND ( 'NONE', #163, .T. ) ;
#64 = AXIS2_PLACEMENT_3D ( 'NONE', #337, #262, #155 ) ;
#65 = ADVANCED_FACE ( 'NONE', ( #325 ), #322, .T. ) ;
#66 = DIRECTION ( 'NONE',  ( -3.491481338843133355E-15, 1.224646799147353207E-16, -1.000000000000000000 ) ) ;
#67 = CALENDAR_DATE ( 2021, 3, 9 ) ;
#68 = DIRECTION ( 'NONE',  ( 0.0000000000000000000, 1.000000000000000000, 0.0000000000000000000 ) ) ;
#69 = CARTESIAN_POINT ( 'NONE',  ( 1.346886905457540674E-30, 3.149999999999996803, 3.857637417314158745E-16 ) ) ;
#70 = DIRECTION ( 'NONE',  ( -3.491481338843133355E-15, 1.224646799147353207E-16, -1.000000000000000000 ) ) ;
#71 = LOCAL_TIME ( 9, 21, 54.00000000000000000, #285 ) ;
#72 = CARTESIAN_POINT ( 'NONE',  ( 6.994128703259920511E-15, 3.149999999999991473, 1.892710949936830866 ) ) ;
#73 = SHAPE_DEFINITION_REPRESENTATION ( #250, #138 ) ;
#74 = EDGE_LOOP ( 'NONE', ( #266, #184 ) ) ;
#75 = DATE_AND_TIME ( #310, #307 ) ;
#76 = VECTOR ( 'NONE', #18, 1000.000000000000000 ) ;
#77 = FACE_OUTER_BOUND ( 'NONE', #104, .T. ) ;
#78 = CC_DESIGN_SECURITY_CLASSIFICATION ( #216, ( #265 ) ) ;
#79 = ORIENTED_EDGE ( 'NONE', *, *, #2, .F. ) ;
#80 = VERTEX_POINT ( 'NONE', #206 ) ;
#81 = VERTEX_POINT ( 'NONE', #72 ) ;
#82 = AXIS2_PLACEMENT_3D ( 'NONE', #10, #70, #175 ) ;
#83 = CIRCLE ( 'NONE', #249, 3.149999999999994138 ) ;
#84 = EDGE_CURVE ( 'NONE', #282, #81, #54, .T. ) ;
#85 = LINE ( 'NONE', #141, #257 ) ;
#86 = FACE_OUTER_BOUND ( 'NONE', #59, .T. ) ;
#87 = EDGE_CURVE ( 'NONE', #81, #282, #164, .T. ) ;
#88 = CLOSED_SHELL ( 'NONE', ( #51, #28, #311, #12, #222 ) ) ;
#89 = APPROVAL_ROLE ( '' ) ;
#90 = DIRECTION ( 'NONE',  ( 4.275831445896958607E-31, 1.000000000000000000, 1.224646799147353207E-16 ) ) ;
#91 = FACE_OUTER_BOUND ( 'NONE', #55, .T. ) ;
#92 = EDGE_CURVE ( 'NONE', #58, #217, #145, .T. ) ;
#93 = CARTESIAN_POINT ( 'NONE',  ( 3.857637417314145926E-16, -3.149999999999996803, -3.857637417314172057E-16 ) ) ;
#94 = AXIS2_PLACEMENT_3D ( 'NONE', #149, #252, #15 ) ;
#95 = DIRECTION ( 'NONE',  ( -2.468850131082275599E-15, 0.7071067811865445751, -0.7071067811865504593 ) ) ;
#96 = PLANE ( 'NONE',  #64 ) ;
#97 = CC_DESIGN_DATE_AND_TIME_ASSIGNMENT ( #218, #291, ( #216 ) ) ;
#98 = AXIS2_PLACEMENT_3D ( 'NONE', #244, #8, #321 ) ;
#99 = CYLINDRICAL_SURFACE ( 'NONE', #207, 3.149999999999993250 ) ;
#100 = VERTEX_POINT ( 'NONE', #11 ) ;
#101 = VERTEX_POINT ( 'NONE', #139 ) ;
#102 = CALENDAR_DATE ( 2021, 3, 9 ) ;
#103 = APPLICATION_CONTEXT ( 'configuration controlled 3d designs of mechanical parts and assemblies' ) ;
#104 = EDGE_LOOP ( 'NONE', ( #314, #304, #190 ) ) ;
#105 = EDGE_CURVE ( 'NONE', #167, #128, #248, .T. ) ;
#106 = AXIS2_PLACEMENT_3D ( 'NONE', #36, #137, #240 ) ;
#107 = APPROVAL_PERSON_ORGANIZATION ( #153, #232, #21 ) ;
#108 = ORIENTED_EDGE ( 'NONE', *, *, #169, .T. ) ;
#109 = DIRECTION ( 'NONE',  ( -3.491481338843133355E-15, 1.224646799147353207E-16, -1.000000000000000000 ) ) ;
#110 = DIRECTION ( 'NONE',  ( 4.891250652412039964E-31, 1.000000000000000000, 1.376764663473659915E-16 ) ) ;
#111 = PERSON_AND_ORGANIZATION_ROLE ( 'design_owner' ) ;
#112 = DIRECTION ( 'NONE',  ( -3.491481338843133355E-15, 1.224646799147353207E-16, -1.000000000000000000 ) ) ;
#113 = DIRECTION ( 'NONE',  ( 1.903218546456022717E-15, 0.8571673007021097801, 0.5150380749100585964 ) ) ;
#114 = LOCAL_TIME ( 9, 21, 54.00000000000000000, #279 ) ;
#115 = CARTESIAN_POINT ( 'NONE',  ( 6.608364961528503848E-15, -2.317902406551285915E-16, 1.892710949936830422 ) ) ;
#116 = ADVANCED_FACE ( 'NONE', ( #23 ), #324, .F. ) ;
#117 = CARTESIAN_POINT ( 'NONE',  ( 8.030407079339205455E-14, 3.149999999999991473, 23.00000000000000000 ) ) ;
#118 = AXIS2_PLACEMENT_3D ( 'NONE', #208, #112, #110 ) ;
#119 = DIRECTION ( 'NONE',  ( -3.491481338843133355E-15, 1.224646799147353207E-16, -1.000000000000000000 ) ) ;
#120 = UNCERTAINTY_MEASURE_WITH_UNIT (LENGTH_MEASURE( 1.000000000000000082E-05 ), #238, 'distance_accuracy_value', 'NONE');
#121 = CALENDAR_DATE ( 2021, 3, 9 ) ;
#122 = DIRECTION ( 'NONE',  ( 0.0000000000000000000, 1.000000000000000000, 0.0000000000000000000 ) ) ;
#123 = PRODUCT_RELATED_PRODUCT_CATEGORY ( 'detail', '', ( #299 ) ) ;
#124 = DIRECTION ( 'NONE',  ( 3.491481338843133355E-15, -1.224646799147353207E-16, 1.000000000000000000 ) ) ;
#125 = DIRECTION ( 'NONE',  ( -3.491481338843133355E-15, 1.224646799147353207E-16, -1.000000000000000000 ) ) ;
#126 = DATE_TIME_ROLE ( 'creation_date' ) ;
#127 = CIRCLE ( 'NONE', #276, 3.149999999999994138 ) ;
#128 = VERTEX_POINT ( 'NONE', #203 ) ;
#129 = DIRECTION ( 'NONE',  ( -4.891250652412039964E-31, -1.000000000000000000, -1.376764663473659915E-16 ) ) ;
#130 = EDGE_CURVE ( 'NONE', #101, #100, #234, .T. ) ;
#131 = ORIENTED_EDGE ( 'NONE', *, *, #292, .F. ) ;
#132 = PERSON ( 'UNSPECIFIED', 'UNSPECIFIED', 'UNSPECIFIED', ('UNSPECIFIED'), ('UNSPECIFIED'), ('UNSPECIFIED') ) ;
#133 = VECTOR ( 'NONE', #43, 1000.000000000000000 ) ;
#134 = ORIENTED_EDGE ( 'NONE', *, *, #84, .F. ) ;
#135 = ADVANCED_FACE ( 'NONE', ( #86 ), #293, .T. ) ;
#136 = APPLICATION_PROTOCOL_DEFINITION ( 'international standard', 'config_control_design', 1994, #306 ) ;
#137 = DIRECTION ( 'NONE',  ( -3.491481338843133355E-15, 1.224646799147353207E-16, -1.000000000000000000 ) ) ;
#138 = ADVANCED_BREP_SHAPE_REPRESENTATION ( '29764', ( #170, #47, #25 ), #313 ) ;
#139 = CARTESIAN_POINT ( 'NONE',  ( 8.030407079339205455E-14, 3.149999999999991473, 23.00000000000000000 ) ) ;
#140 = CARTESIAN_POINT ( 'NONE',  ( 0.0000000000000000000, 0.0000000000000000000, 0.0000000000000000000 ) ) ;
#141 = CARTESIAN_POINT ( 'NONE',  ( 6.994128703259920511E-15, 3.149999999999991473, 1.892710949936830866 ) ) ;
#142 = DIRECTION ( 'NONE',  ( -3.491481338843133355E-15, 1.224646799147353207E-16, -1.000000000000000000 ) ) ;
#143 = CARTESIAN_POINT ( 'NONE',  ( 1.615176275293419816E-13, -3.149999999999996358, 23.00000000000000000 ) ) ;
#144 = DATE_AND_TIME ( #327, #114 ) ;
#145 = CIRCLE ( 'NONE', #60, 3.149999999999999911 ) ;
#146 = LOCAL_TIME ( 9, 21, 54.00000000000000000, #298 ) ;
#147 = CARTESIAN_POINT ( 'NONE',  ( 8.030407079339205455E-14, -2.816687638038912352E-15, 23.00000000000000000 ) ) ;
#148 = ADVANCED_FACE ( 'NONE', ( #150 ), #242, .T. ) ;
#149 = CARTESIAN_POINT ( 'NONE',  ( 8.030407079339205455E-14, -2.816687638038912352E-15, 23.00000000000000000 ) ) ;
#150 = FACE_OUTER_BOUND ( 'NONE', #260, .T. ) ;
#151 = CARTESIAN_POINT ( 'NONE',  ( 6.608364961528502270E-15, -3.149999999999992362, 1.892710949936829978 ) ) ;
#152 = EDGE_CURVE ( 'NONE', #80, #81, #85, .T. ) ;
#153 = PERSON_AND_ORGANIZATION ( #132, #221 ) ;
#154 = PERSON_AND_ORGANIZATION ( #132, #221 ) ;
#155 = DIRECTION ( 'NONE',  ( -4.275831445896958607E-31, -1.000000000000000000, -1.224646799147353207E-16 ) ) ;
#156 = DATE_AND_TIME ( #121, #71 ) ;
#157 = DIRECTION ( 'NONE',  ( -3.491481338843133355E-15, 1.224646799147353207E-16, -1.000000000000000000 ) ) ;
#158 = EDGE_CURVE ( 'NONE', #268, #30, #83, .T. ) ;
#159 = DIRECTION ( 'NONE',  ( -2.382254525458727330E-15, -0.7071067811865443531, -0.7071067811865506814 ) ) ;
#160 = ORIENTED_EDGE ( 'NONE', *, *, #87, .F. ) ;
#161 = CARTESIAN_POINT ( 'NONE',  ( 8.030407079339205455E-14, 2.362121657692417248E-32, 23.00000000000000000 ) ) ;
#162 = CC_DESIGN_PERSON_AND_ORGANIZATION_ASSIGNMENT ( #220, #186, ( #216 ) ) ;
#163 = EDGE_LOOP ( 'NONE', ( #294, #32, #160, #131 ) ) ;
#164 = CIRCLE ( 'NONE', #193, 3.149999999999991918 ) ;
#165 = DIRECTION ( 'NONE',  ( 3.491481338843133355E-15, -1.224646799147353207E-16, 1.000000000000000000 ) ) ;
#166 = EDGE_LOOP ( 'NONE', ( #315, #198, #219 ) ) ;
#167 = VERTEX_POINT ( 'NONE', #35 ) ;
#168 = DIRECTION ( 'NONE',  ( -3.491481338843133355E-15, 1.224646799147353207E-16, -1.000000000000000000 ) ) ;
#169 = EDGE_CURVE ( 'NONE', #128, #167, #194, .T. ) ;
#170 = MANIFOLD_SOLID_BREP ( 'Corps-Déplacer/Copier1[1]', #319 ) ;
#171 = CARTESIAN_POINT ( 'NONE',  ( 2.419596567818291352E-13, -8.486802318091157127E-15, 69.29999999999999716 ) ) ;
#172 = APPLICATION_PROTOCOL_DEFINITION ( 'international standard', 'config_control_design', 1994, #103 ) ;
#173 = EDGE_CURVE ( 'NONE', #80, #282, #231, .T. ) ;
#174 = DIRECTION ( 'NONE',  ( 4.275831445896958607E-31, 1.000000000000000000, 1.224646799147353207E-16 ) ) ;
#175 = DIRECTION ( 'NONE',  ( 0.0000000000000000000, 1.000000000000000000, 0.0000000000000000000 ) ) ;
#176 = CYLINDRICAL_SURFACE ( 'NONE', #19, 3.149999999999996803 ) ;
#177 = VECTOR ( 'NONE', #95, 1000.000000000000000 ) ;
#178 = ORIENTED_EDGE ( 'NONE', *, *, #288, .F. ) ;
#179 = PERSON_AND_ORGANIZATION ( #132, #221 ) ;
#180 = CARTESIAN_POINT ( 'NONE',  ( 6.608364961528503848E-15, -2.317902406551285915E-16, 1.892710949936830422 ) ) ;
#181 = DIRECTION ( 'NONE',  ( 4.275831445896958607E-31, 1.000000000000000000, 1.224646799147353207E-16 ) ) ;
#182 = CARTESIAN_POINT ( 'NONE',  ( 6.608364961528503848E-15, -2.317902406551285915E-16, 1.892710949936830422 ) ) ;
#183 = CC_DESIGN_DATE_AND_TIME_ASSIGNMENT ( #156, #126, ( #243 ) ) ;
#184 = ORIENTED_EDGE ( 'NONE', *, *, #241, .F. ) ;
#185 = CONICAL_SURFACE ( 'NONE', #225, 3.149999999999991918, 1.029744258676649649 ) ;
#186 = PERSON_AND_ORGANIZATION_ROLE ( 'classification_officer' ) ;
#187 = ORIENTED_EDGE ( 'NONE', *, *, #241, .T. ) ;
#188 = PLANE ( 'NONE',  #1 ) ;
#189 = CC_DESIGN_PERSON_AND_ORGANIZATION_ASSIGNMENT ( #179, #49, ( #265 ) ) ;
#190 = ORIENTED_EDGE ( 'NONE', *, *, #87, .T. ) ;
#191 = ORIENTED_EDGE ( 'NONE', *, *, #169, .F. ) ;
#192 = EDGE_LOOP ( 'NONE', ( #191, #3 ) ) ;
#193 = AXIS2_PLACEMENT_3D ( 'NONE', #115, #66, #223 ) ;
#194 = CIRCLE ( 'NONE', #237, 2.449999999999999734 ) ;
#195 = ORIENTED_EDGE ( 'NONE', *, *, #158, .T. ) ;
#196 =( NAMED_UNIT ( * ) PLANE_ANGLE_UNIT ( ) SI_UNIT ( $, .RADIAN. ) );
#197 = CC_DESIGN_PERSON_AND_ORGANIZATION_ASSIGNMENT ( #154, #261, ( #265 ) ) ;
#198 = ORIENTED_EDGE ( 'NONE', *, *, #173, .T. ) ;
#199 = DIRECTION ( 'NONE',  ( -3.491481338843133355E-15, 1.224646799147353207E-16, -1.000000000000000000 ) ) ;
#200 = VECTOR ( 'NONE', #281, 1000.000000000000000 ) ;
#201 = CARTESIAN_POINT ( 'NONE',  ( 2.444036937190193601E-13, 2.449999999999991296, 70.00000000000000000 ) ) ;
#202 = ADVANCED_FACE ( 'NONE', ( #256 ), #176, .T. ) ;
#203 = CARTESIAN_POINT ( 'NONE',  ( 2.444036937190193601E-13, 2.449999999999991296, 70.00000000000000000 ) ) ;
#204 = DATE_AND_TIME ( #67, #146 ) ;
#205 = APPROVAL_STATUS ( 'not_yet_approved' ) ;
#206 = CARTESIAN_POINT ( 'NONE',  ( 0.0000000000000000000, 0.0000000000000000000, 0.0000000000000000000 ) ) ;
#207 = AXIS2_PLACEMENT_3D ( 'NONE', #52, #157, #26 ) ;
#208 = CARTESIAN_POINT ( 'NONE',  ( 6.608364961528503848E-15, -2.317902406551285915E-16, 1.892710949936830422 ) ) ;
#209 = COORDINATED_UNIVERSAL_TIME_OFFSET ( 1, 0, .AHEAD. ) ;
#210 = FACE_OUTER_BOUND ( 'NONE', #239, .T. ) ;
#211 = CC_DESIGN_APPROVAL ( #213, ( #243 ) ) ;
#212 = CARTESIAN_POINT ( 'NONE',  ( 1.346886905457538922E-30, 3.149999999999993250, 3.857637417314153814E-16 ) ) ;
#213 = APPROVAL ( #245, 'UNSPECIFIED' ) ;
#214 = LINE ( 'NONE', #69, #133 ) ;
#215 = ORIENTED_EDGE ( 'NONE', *, *, #254, .T. ) ;
#216 = SECURITY_CLASSIFICATION ( '', '', #22 ) ;
#217 = VERTEX_POINT ( 'NONE', #278 ) ;
#218 = DATE_AND_TIME ( #102, #303 ) ;
#219 = ORIENTED_EDGE ( 'NONE', *, *, #84, .T. ) ;
#220 = PERSON_AND_ORGANIZATION ( #132, #221 ) ;
#221 = ORGANIZATION ( 'UNSPECIFIED', 'UNSPECIFIED', '' ) ;
#222 = ADVANCED_FACE ( 'NONE', ( #280 ), #96, .T. ) ;
#223 = DIRECTION ( 'NONE',  ( 4.891250652412039964E-31, 1.000000000000000000, 1.376764663473659915E-16 ) ) ;
#224 = CARTESIAN_POINT ( 'NONE',  ( 2.444036937190193601E-13, 1.837205733760762432E-32, 70.00000000000000000 ) ) ;
#225 = AXIS2_PLACEMENT_3D ( 'NONE', #180, #284, #233 ) ;
#226 = CARTESIAN_POINT ( 'NONE',  ( 0.0000000000000000000, 0.0000000000000000000, 0.0000000000000000000 ) ) ;
#227 = LINE ( 'NONE', #255, #7 ) ;
#228 = CC_DESIGN_APPROVAL ( #232, ( #265 ) ) ;
#229 = EDGE_CURVE ( 'NONE', #217, #30, #214, .T. ) ;
#230 = DIRECTION ( 'NONE',  ( -3.491481338843133355E-15, 1.224646799147353207E-16, -1.000000000000000000 ) ) ;
#231 = LINE ( 'NONE', #151, #76 ) ;
#232 = APPROVAL ( #258, 'UNSPECIFIED' ) ;
#233 = DIRECTION ( 'NONE',  ( -4.891250652412039964E-31, -1.000000000000000000, -1.376764663473659915E-16 ) ) ;
#234 = CIRCLE ( 'NONE', #331, 3.149999999999994138 ) ;
#235 = CARTESIAN_POINT ( 'NONE',  ( 1.615176275293418806E-13, -3.150000000000009237, 69.29999999999999716 ) ) ;
#236 = ORIENTED_EDGE ( 'NONE', *, *, #92, .F. ) ;
#237 = AXIS2_PLACEMENT_3D ( 'NONE', #246, #323, #122 ) ;
#238 =( LENGTH_UNIT ( ) NAMED_UNIT ( * ) SI_UNIT ( .MILLI., .METRE. ) );
#239 = EDGE_LOOP ( 'NONE', ( #62, #195 ) ) ;
#240 = DIRECTION ( 'NONE',  ( 0.0000000000000000000, 1.000000000000000000, 0.0000000000000000000 ) ) ;
#241 = EDGE_CURVE ( 'NONE', #100, #101, #61, .T. ) ;
#242 = CONICAL_SURFACE ( 'NONE', #34, 2.449999999999999734, 0.7853981633974439491 ) ;
#243 = PRODUCT_DEFINITION ( 'UNKNOWN', '', #265, #328 ) ;
#244 = CARTESIAN_POINT ( 'NONE',  ( 2.444036937190193601E-13, -8.572527594031472993E-15, 70.00000000000000000 ) ) ;
#245 = APPROVAL_STATUS ( 'not_yet_approved' ) ;
#246 = CARTESIAN_POINT ( 'NONE',  ( 2.444036937190193601E-13, -8.572527594031472993E-15, 70.00000000000000000 ) ) ;
#247 = DIRECTION ( 'NONE',  ( 0.0000000000000000000, 1.000000000000000000, 0.0000000000000000000 ) ) ;
#248 = CIRCLE ( 'NONE', #98, 2.449999999999999734 ) ;
#249 = AXIS2_PLACEMENT_3D ( 'NONE', #296, #168, #271 ) ;
#250 = PRODUCT_DEFINITION_SHAPE ( 'NONE', 'NONE',  #243 ) ;
#251 = DIRECTION ( 'NONE',  ( -3.491481338843133355E-15, 1.224646799147353207E-16, -1.000000000000000000 ) ) ;
#252 = DIRECTION ( 'NONE',  ( -3.491481338843133355E-15, 1.224646799147353207E-16, -1.000000000000000000 ) ) ;
#253 = CARTESIAN_POINT ( 'NONE',  ( 2.444036937190193601E-13, -8.572527594031472993E-15, 70.00000000000000000 ) ) ;
#254 = EDGE_CURVE ( 'NONE', #58, #268, #329, .T. ) ;
#255 = CARTESIAN_POINT ( 'NONE',  ( 3.857637417314140995E-16, -3.149999999999993250, -3.857637417314167619E-16 ) ) ;
#256 = FACE_OUTER_BOUND ( 'NONE', #318, .T. ) ;
#257 = VECTOR ( 'NONE', #113, 999.9999999999998863 ) ;
#258 = APPROVAL_STATUS ( 'not_yet_approved' ) ;
#259 = EDGE_CURVE ( 'NONE', #30, #268, #127, .T. ) ;
#260 = EDGE_LOOP ( 'NONE', ( #178, #29, #317, #236 ) ) ;
#261 = PERSON_AND_ORGANIZATION_ROLE ( 'design_supplier' ) ;
#262 = DIRECTION ( 'NONE',  ( 3.491481338843133355E-15, -1.224646799147353207E-16, 1.000000000000000000 ) ) ;
#263 = ORIENTED_EDGE ( 'NONE', *, *, #38, .F. ) ;
#264 = CIRCLE ( 'NONE', #106, 3.149999999999999911 ) ;
#265 = PRODUCT_DEFINITION_FORMATION_WITH_SPECIFIED_SOURCE ( 'ANY', '', #299, .NOT_KNOWN. ) ;
#266 = ORIENTED_EDGE ( 'NONE', *, *, #130, .F. ) ;
#267 =( NAMED_UNIT ( * ) SI_UNIT ( $, .STERADIAN. ) SOLID_ANGLE_UNIT ( ) );
#268 = VERTEX_POINT ( 'NONE', #143 ) ;
#269 = AXIS2_PLACEMENT_3D ( 'NONE', #182, #124, #129 ) ;
#270 = ORIENTED_EDGE ( 'NONE', *, *, #229, .T. ) ;
#271 = DIRECTION ( 'NONE',  ( 0.0000000000000000000, 1.000000000000000000, 0.0000000000000000000 ) ) ;
#272 = ORIENTED_EDGE ( 'NONE', *, *, #2, .T. ) ;
#273 = CC_DESIGN_APPROVAL ( #300, ( #216 ) ) ;
#274 = DIRECTION ( 'NONE',  ( -3.491481338843133355E-15, 1.224646799147353207E-16, -1.000000000000000000 ) ) ;
#275 = DIRECTION ( 'NONE',  ( 1.000000000000000000, 0.0000000000000000000, 0.0000000000000000000 ) ) ;
#276 = AXIS2_PLACEMENT_3D ( 'NONE', #335, #109, #68 ) ;
#277 = EDGE_CURVE ( 'NONE', #128, #217, #333, .T. ) ;
#278 = CARTESIAN_POINT ( 'NONE',  ( 2.419596567818291352E-13, 3.149999999999991473, 69.29999999999999716 ) ) ;
#279 = COORDINATED_UNIVERSAL_TIME_OFFSET ( 1, 0, .AHEAD. ) ;
#280 = FACE_OUTER_BOUND ( 'NONE', #74, .T. ) ;
#281 = DIRECTION ( 'NONE',  ( -3.491481338843133355E-15, 1.224646799147353207E-16, -1.000000000000000000 ) ) ;
#282 = VERTEX_POINT ( 'NONE', #42 ) ;
#283 = PERSON_AND_ORGANIZATION ( #132, #221 ) ;
#284 = DIRECTION ( 'NONE',  ( 3.491481338843133355E-15, -1.224646799147353207E-16, 1.000000000000000000 ) ) ;
#285 = COORDINATED_UNIVERSAL_TIME_OFFSET ( 1, 0, .AHEAD. ) ;
#286 = CONICAL_SURFACE ( 'NONE', #269, 3.149999999999991918, 1.029744258676649649 ) ;
#287 = ORIENTED_EDGE ( 'NONE', *, *, #259, .F. ) ;
#288 = EDGE_CURVE ( 'NONE', #167, #58, #14, .T. ) ;
#289 = ORIENTED_EDGE ( 'NONE', *, *, #288, .T. ) ;
#290 = ORIENTED_EDGE ( 'NONE', *, *, #277, .F. ) ;
#291 = DATE_TIME_ROLE ( 'classification_date' ) ;
#292 = EDGE_CURVE ( 'NONE', #101, #81, #336, .T. ) ;
#293 = CONICAL_SURFACE ( 'NONE', #82, 2.449999999999999734, 0.7853981633974439491 ) ;
#294 = ORIENTED_EDGE ( 'NONE', *, *, #130, .T. ) ;
#295 = APPROVAL_PERSON_ORGANIZATION ( #37, #213, #89 ) ;
#296 = CARTESIAN_POINT ( 'NONE',  ( 8.030407079339205455E-14, -2.816687638038912352E-15, 23.00000000000000000 ) ) ;
#297 = APPROVAL_ROLE ( '' ) ;
#298 = COORDINATED_UNIVERSAL_TIME_OFFSET ( 1, 0, .AHEAD. ) ;
#299 = PRODUCT ( '29764', '29764', '', ( #330 ) ) ;
#300 = APPROVAL ( #205, 'UNSPECIFIED' ) ;
#301 = DIRECTION ( 'NONE',  ( -3.491481338843133355E-15, 1.224646799147353207E-16, -1.000000000000000000 ) ) ;
#302 = AXIS2_PLACEMENT_3D ( 'NONE', #44, #125, #308 ) ;
#303 = LOCAL_TIME ( 9, 21, 54.00000000000000000, #27 ) ;
#304 = ORIENTED_EDGE ( 'NONE', *, *, #152, .T. ) ;
#305 = CC_DESIGN_PERSON_AND_ORGANIZATION_ASSIGNMENT ( #9, #111, ( #299 ) ) ;
#306 = APPLICATION_CONTEXT ( 'configuration controlled 3d designs of mechanical parts and assemblies' ) ;
#307 = LOCAL_TIME ( 9, 21, 54.00000000000000000, #209 ) ;
#308 = DIRECTION ( 'NONE',  ( 4.275831445896957731E-31, 1.000000000000000000, 1.224646799147352961E-16 ) ) ;
#309 = FACE_OUTER_BOUND ( 'NONE', #166, .T. ) ;
#310 = CALENDAR_DATE ( 2021, 3, 9 ) ;
#311 = ADVANCED_FACE ( 'NONE', ( #309 ), #286, .T. ) ;
#312 = ORIENTED_EDGE ( 'NONE', *, *, #292, .T. ) ;
#313 =( GEOMETRIC_REPRESENTATION_CONTEXT ( 3 ) GLOBAL_UNCERTAINTY_ASSIGNED_CONTEXT ( ( #120 ) ) GLOBAL_UNIT_ASSIGNED_CONTEXT ( ( #238, #196, #267 ) ) REPRESENTATION_CONTEXT ( 'NONE', 'WORKASPACE' ) );
#314 = ORIENTED_EDGE ( 'NONE', *, *, #173, .F. ) ;
#315 = ORIENTED_EDGE ( 'NONE', *, *, #152, .F. ) ;
#316 = DIRECTION ( 'NONE',  ( -4.275831445896958607E-31, -1.000000000000000000, -1.224646799147353207E-16 ) ) ;
#317 = ORIENTED_EDGE ( 'NONE', *, *, #277, .T. ) ;
#318 = EDGE_LOOP ( 'NONE', ( #272, #215, #287, #6 ) ) ;
#319 = CLOSED_SHELL ( 'NONE', ( #135, #202, #326, #65, #148, #116 ) ) ;
#320 = VECTOR ( 'NONE', #159, 1000.000000000000000 ) ;
#321 = DIRECTION ( 'NONE',  ( 0.0000000000000000000, 1.000000000000000000, 0.0000000000000000000 ) ) ;
#322 = CYLINDRICAL_SURFACE ( 'NONE', #33, 3.149999999999996803 ) ;
#323 = DIRECTION ( 'NONE',  ( -3.491481338843133355E-15, 1.224646799147353207E-16, -1.000000000000000000 ) ) ;
#324 = PLANE ( 'NONE',  #40 ) ;
#325 = FACE_OUTER_BOUND ( 'NONE', #5, .T. ) ;
#326 = ADVANCED_FACE ( 'NONE', ( #210 ), #188, .F. ) ;
#327 = CALENDAR_DATE ( 2021, 3, 9 ) ;
#328 = DESIGN_CONTEXT ( 'detailed design', #103, 'design' ) ;
#329 = LINE ( 'NONE', #93, #41 ) ;
#330 = MECHANICAL_CONTEXT ( 'NONE', #306, 'mechanical' ) ;
#331 = AXIS2_PLACEMENT_3D ( 'NONE', #147, #251, #13 ) ;
#332 = APPROVAL_PERSON_ORGANIZATION ( #31, #300, #297 ) ;
#333 = LINE ( 'NONE', #201, #177 ) ;
#334 = CYLINDRICAL_SURFACE ( 'NONE', #302, 3.149999999999993250 ) ;
#335 = CARTESIAN_POINT ( 'NONE',  ( 8.030407079339205455E-14, -2.816687638038912352E-15, 23.00000000000000000 ) ) ;
#336 = LINE ( 'NONE', #212, #200 ) ;
#337 = CARTESIAN_POINT ( 'NONE',  ( 8.030407079339205455E-14, 2.362121657692417248E-32, 23.00000000000000000 ) ) ;
ENDSEC;
END-ISO-10303-21;
