ISO-10303-21;
HEADER;
FILE_DESCRIPTION (( 'STEP AP203' ),
    '1' );
FILE_NAME ('29762.step',
    '2021-09-03T07:21:53',
    ( '' ),
    ( '' ),
    'SwSTEP 2.0',
    'SolidWorks 2019',
    '' );
FILE_SCHEMA (( 'CONFIG_CONTROL_DESIGN' ));
ENDSEC;

DATA;
#1 = LOCAL_TIME ( 9, 21, 53.00000000000000000, #37 ) ;
#2 = APPLICATION_PROTOCOL_DEFINITION ( 'international standard', 'config_control_design', 1994, #124 ) ;
#3 = CARTESIAN_POINT ( 'NONE',  ( 6.772092871410400703E-15, 3.049999999999992273, 1.832624888034074750 ) ) ;
#4 = DIRECTION ( 'NONE',  ( -3.491481338843133355E-15, 1.224646799147353207E-16, -1.000000000000000000 ) ) ;
#5 = CALENDAR_DATE ( 2021, 3, 9 ) ;
#6 = DIRECTION ( 'NONE',  ( -3.491481338843133355E-15, 1.224646799147353207E-16, -1.000000000000000000 ) ) ;
#7 = LOCAL_TIME ( 9, 21, 53.00000000000000000, #223 ) ;
#8 = DIRECTION ( 'NONE',  ( 4.275831445896958607E-31, 1.000000000000000000, 1.224646799147353207E-16 ) ) ;
#9 = APPROVAL_ROLE ( '' ) ;
#10 = APPROVAL ( #299, 'UNSPECIFIED' ) ;
#11 = EDGE_CURVE ( 'NONE', #168, #286, #262, .T. ) ;
#12 = DIRECTION ( 'NONE',  ( -2.382254525458727330E-15, -0.7071067811865443531, -0.7071067811865506814 ) ) ;
#13 = ADVANCED_FACE ( 'NONE', ( #29 ), #127, .F. ) ;
#14 = PERSON_AND_ORGANIZATION ( #142, #139 ) ;
#15 =( GEOMETRIC_REPRESENTATION_CONTEXT ( 3 ) GLOBAL_UNCERTAINTY_ASSIGNED_CONTEXT ( ( #292 ) ) GLOBAL_UNIT_ASSIGNED_CONTEXT ( ( #59, #167, #94 ) ) REPRESENTATION_CONTEXT ( 'NONE', 'WORKASPACE' ) );
#16 = ORIENTED_EDGE ( 'NONE', *, *, #153, .T. ) ;
#17 = LINE ( 'NONE', #116, #325 ) ;
#18 = EDGE_CURVE ( 'NONE', #161, #199, #256, .T. ) ;
#19 = VECTOR ( 'NONE', #218, 1000.000000000000000 ) ;
#20 = DATE_AND_TIME ( #230, #7 ) ;
#21 = ORIENTED_EDGE ( 'NONE', *, *, #304, .F. ) ;
#22 = APPROVAL ( #140, 'UNSPECIFIED' ) ;
#23 = CYLINDRICAL_SURFACE ( 'NONE', #241, 3.049999999999998046 ) ;
#24 = ADVANCED_FACE ( 'NONE', ( #102 ), #23, .T. ) ;
#25 = CARTESIAN_POINT ( 'NONE',  ( 6.772092871410400703E-15, 3.049999999999992273, 1.832624888034074750 ) ) ;
#26 = CARTESIAN_POINT ( 'NONE',  ( 6.398575597670455819E-15, -3.049999999999993161, 1.832624888034073862 ) ) ;
#27 = AXIS2_PLACEMENT_3D ( 'NONE', #244, #320, #175 ) ;
#28 = SECURITY_CLASSIFICATION ( '', '', #42 ) ;
#29 = FACE_OUTER_BOUND ( 'NONE', #258, .T. ) ;
#30 = DIRECTION ( 'NONE',  ( -5.051619526261613867E-31, -1.000000000000000000, -1.421904488505582859E-16 ) ) ;
#31 = ORIENTED_EDGE ( 'NONE', *, *, #18, .F. ) ;
#32 = ORIENTED_EDGE ( 'NONE', *, *, #11, .F. ) ;
#33 = ORIENTED_EDGE ( 'NONE', *, *, #246, .F. ) ;
#34 = ORIENTED_EDGE ( 'NONE', *, *, #49, .F. ) ;
#35 = PERSON_AND_ORGANIZATION_ROLE ( 'classification_officer' ) ;
#36 = DIRECTION ( 'NONE',  ( -3.491481338843133355E-15, 1.224646799147353207E-16, -1.000000000000000000 ) ) ;
#37 = COORDINATED_UNIVERSAL_TIME_OFFSET ( 1, 0, .AHEAD. ) ;
#38 = ORIENTED_EDGE ( 'NONE', *, *, #160, .F. ) ;
#39 = PERSON_AND_ORGANIZATION ( #142, #139 ) ;
#40 = CARTESIAN_POINT ( 'NONE',  ( 0.0000000000000000000, 0.0000000000000000000, 0.0000000000000000000 ) ) ;
#41 = CIRCLE ( 'NONE', #234, 2.350000000000000977 ) ;
#42 = SECURITY_CLASSIFICATION_LEVEL ( 'unclassified' ) ;
#43 = AXIS2_PLACEMENT_3D ( 'NONE', #87, #4, #107 ) ;
#44 = CC_DESIGN_APPROVAL ( #22, ( #28 ) ) ;
#45 = ADVANCED_FACE ( 'NONE', ( #216 ), #135, .F. ) ;
#46 = DIRECTION ( 'NONE',  ( 1.798245827342159528E-15, -0.8571673007021100021, 0.5150380749100580413 ) ) ;
#47 = DIRECTION ( 'NONE',  ( -3.491481338843133355E-15, 1.224646799147353207E-16, -1.000000000000000000 ) ) ;
#48 = CC_DESIGN_PERSON_AND_ORGANIZATION_ASSIGNMENT ( #243, #201, ( #189 ) ) ;
#49 = EDGE_CURVE ( 'NONE', #199, #161, #302, .T. ) ;
#50 = CARTESIAN_POINT ( 'NONE',  ( 2.444036937190193601E-13, 2.349999999999992095, 70.00000000000000000 ) ) ;
#51 = DIRECTION ( 'NONE',  ( 0.0000000000000000000, 1.000000000000000000, 0.0000000000000000000 ) ) ;
#52 = ORIENTED_EDGE ( 'NONE', *, *, #179, .T. ) ;
#53 = DATE_AND_TIME ( #281, #316 ) ;
#54 = EDGE_LOOP ( 'NONE', ( #151, #215, #227 ) ) ;
#55 = AXIS2_PLACEMENT_3D ( 'NONE', #57, #264, #30 ) ;
#56 = DIRECTION ( 'NONE',  ( 0.0000000000000000000, 1.000000000000000000, 0.0000000000000000000 ) ) ;
#57 = CARTESIAN_POINT ( 'NONE',  ( 6.398575597670457396E-15, -2.244318203168705832E-16, 1.832624888034074306 ) ) ;
#58 = CARTESIAN_POINT ( 'NONE',  ( 1.615053810613504096E-13, -3.050000000000009592, 69.29999999999999716 ) ) ;
#59 =( LENGTH_UNIT ( ) NAMED_UNIT ( * ) SI_UNIT ( .MILLI., .METRE. ) );
#60 = EDGE_LOOP ( 'NONE', ( #165, #283, #80, #112 ) ) ;
#61 = MANIFOLD_SOLID_BREP ( 'Corps-Déplacer/Copier1[1]', #95 ) ;
#62 = DIRECTION ( 'NONE',  ( -2.468850131082275599E-15, 0.7071067811865445751, -0.7071067811865504593 ) ) ;
#63 = DIRECTION ( 'NONE',  ( -4.275831445896958607E-31, -1.000000000000000000, -1.224646799147353207E-16 ) ) ;
#64 = DIRECTION ( 'NONE',  ( 4.275831445896958607E-31, 1.000000000000000000, 1.224646799147353207E-16 ) ) ;
#65 = APPROVAL_PERSON_ORGANIZATION ( #39, #22, #9 ) ;
#66 = EDGE_LOOP ( 'NONE', ( #146, #261, #133, #21 ) ) ;
#67 = ADVANCED_FACE ( 'NONE', ( #113 ), #328, .T. ) ;
#68 = CARTESIAN_POINT ( 'NONE',  ( 8.030407079339205455E-14, 2.287133668559325462E-32, 23.00000000000000000 ) ) ;
#69 = APPROVAL_DATE_TIME ( #198, #10 ) ;
#70 = DATE_AND_TIME ( #5, #226 ) ;
#71 = DIRECTION ( 'NONE',  ( -3.491481338843133355E-15, 1.224646799147353207E-16, -1.000000000000000000 ) ) ;
#72 = DIRECTION ( 'NONE',  ( 4.275831445896958607E-31, 1.000000000000000000, 1.224646799147353207E-16 ) ) ;
#73 = CONICAL_SURFACE ( 'NONE', #43, 2.350000000000000977, 0.7853981633974439491 ) ;
#74 = EDGE_CURVE ( 'NONE', #115, #326, #41, .T. ) ;
#75 = AXIS2_PLACEMENT_3D ( 'NONE', #149, #98, #253 ) ;
#76 = EDGE_LOOP ( 'NONE', ( #34, #31 ) ) ;
#77 = CARTESIAN_POINT ( 'NONE',  ( 1.304128590998571596E-30, 3.049999999999998046, 3.735172737399425174E-16 ) ) ;
#78 = ADVANCED_FACE ( 'NONE', ( #182 ), #148, .T. ) ;
#79 = DIRECTION ( 'NONE',  ( -3.491481338843133355E-15, 1.224646799147353207E-16, -1.000000000000000000 ) ) ;
#80 = ORIENTED_EDGE ( 'NONE', *, *, #246, .T. ) ;
#81 = COORDINATED_UNIVERSAL_TIME_OFFSET ( 1, 0, .AHEAD. ) ;
#82 = AXIS2_PLACEMENT_3D ( 'NONE', #271, #134, #56 ) ;
#83 = DIRECTION ( 'NONE',  ( 0.0000000000000000000, 1.000000000000000000, 0.0000000000000000000 ) ) ;
#84 = ADVANCED_BREP_SHAPE_REPRESENTATION ( '29762', ( #61, #285, #278 ), #15 ) ;
#85 = ORIENTED_EDGE ( 'NONE', *, *, #74, .T. ) ;
#86 = CARTESIAN_POINT ( 'NONE',  ( 2.419596567818291352E-13, -8.486802318091157127E-15, 69.29999999999999716 ) ) ;
#87 = CARTESIAN_POINT ( 'NONE',  ( 2.444036937190193601E-13, -8.572527594031472993E-15, 70.00000000000000000 ) ) ;
#88 = CC_DESIGN_DATE_AND_TIME_ASSIGNMENT ( #70, #273, ( #28 ) ) ;
#89 = ADVANCED_FACE ( 'NONE', ( #173 ), #207, .T. ) ;
#90 = CIRCLE ( 'NONE', #82, 3.049999999999994937 ) ;
#91 = FACE_OUTER_BOUND ( 'NONE', #158, .T. ) ;
#92 = COORDINATED_UNIVERSAL_TIME_OFFSET ( 1, 0, .AHEAD. ) ;
#93 = CARTESIAN_POINT ( 'NONE',  ( 1.615053810613505106E-13, -3.049999999999997602, 23.00000000000000000 ) ) ;
#94 =( NAMED_UNIT ( * ) SI_UNIT ( $, .STERADIAN. ) SOLID_ANGLE_UNIT ( ) );
#95 = CLOSED_SHELL ( 'NONE', ( #89, #24, #45, #78, #260, #13 ) ) ;
#96 = DIRECTION ( 'NONE',  ( 3.491481338843133355E-15, -1.224646799147353207E-16, 1.000000000000000000 ) ) ;
#97 = LOCAL_TIME ( 9, 21, 53.00000000000000000, #92 ) ;
#98 = DIRECTION ( 'NONE',  ( -3.491481338843133355E-15, 1.224646799147353207E-16, -1.000000000000000000 ) ) ;
#99 = CARTESIAN_POINT ( 'NONE',  ( 4.372484046927117127E-14, -3.049999999999997602, 23.00000000000000000 ) ) ;
#100 = CLOSED_SHELL ( 'NONE', ( #180, #67, #300, #269, #284 ) ) ;
#101 = ORIENTED_EDGE ( 'NONE', *, *, #195, .F. ) ;
#102 = FACE_OUTER_BOUND ( 'NONE', #265, .T. ) ;
#103 = VERTEX_POINT ( 'NONE', #93 ) ;
#104 = AXIS2_PLACEMENT_3D ( 'NONE', #333, #79, #51 ) ;
#105 = CARTESIAN_POINT ( 'NONE',  ( 3.735172737399411862E-16, -3.049999999999998046, -3.735172737399437500E-16 ) ) ;
#106 = EDGE_CURVE ( 'NONE', #222, #236, #248, .T. ) ;
#107 = DIRECTION ( 'NONE',  ( 0.0000000000000000000, 1.000000000000000000, 0.0000000000000000000 ) ) ;
#108 = APPLICATION_CONTEXT ( 'configuration controlled 3d designs of mechanical parts and assemblies' ) ;
#109 = DIRECTION ( 'NONE',  ( 0.0000000000000000000, 1.000000000000000000, 0.0000000000000000000 ) ) ;
#110 = AXIS2_PLACEMENT_3D ( 'NONE', #220, #36, #64 ) ;
#111 = PERSON_AND_ORGANIZATION ( #142, #139 ) ;
#112 = ORIENTED_EDGE ( 'NONE', *, *, #239, .F. ) ;
#113 = FACE_OUTER_BOUND ( 'NONE', #54, .T. ) ;
#114 = CARTESIAN_POINT ( 'NONE',  ( 2.444036937190193601E-13, 1.762217744627670373E-32, 70.00000000000000000 ) ) ;
#115 = VERTEX_POINT ( 'NONE', #308 ) ;
#116 = CARTESIAN_POINT ( 'NONE',  ( 6.398575597670455819E-15, -3.049999999999993161, 1.832624888034073862 ) ) ;
#117 = PERSON_AND_ORGANIZATION_ROLE ( 'design_owner' ) ;
#118 = APPROVAL_ROLE ( '' ) ;
#119 = VECTOR ( 'NONE', #12, 1000.000000000000000 ) ;
#120 = CC_DESIGN_APPROVAL ( #10, ( #189 ) ) ;
#121 = EDGE_CURVE ( 'NONE', #286, #123, #138, .T. ) ;
#122 = PERSON_AND_ORGANIZATION ( #142, #139 ) ;
#123 = VERTEX_POINT ( 'NONE', #26 ) ;
#124 = APPLICATION_CONTEXT ( 'configuration controlled 3d designs of mechanical parts and assemblies' ) ;
#125 = CC_DESIGN_APPROVAL ( #231, ( #132 ) ) ;
#126 = PERSON_AND_ORGANIZATION ( #142, #139 ) ;
#127 = PLANE ( 'NONE',  #249 ) ;
#128 = EDGE_LOOP ( 'NONE', ( #101, #224, #334, #38 ) ) ;
#129 = DIRECTION ( 'NONE',  ( 3.491481338843133355E-15, -1.224646799147353207E-16, 1.000000000000000000 ) ) ;
#130 = APPROVAL_STATUS ( 'not_yet_approved' ) ;
#131 = FACE_OUTER_BOUND ( 'NONE', #60, .T. ) ;
#132 = PRODUCT_DEFINITION_FORMATION_WITH_SPECIFIED_SOURCE ( 'ANY', '', #324, .NOT_KNOWN. ) ;
#133 = ORIENTED_EDGE ( 'NONE', *, *, #106, .T. ) ;
#134 = DIRECTION ( 'NONE',  ( -3.491481338843133355E-15, 1.224646799147353207E-16, -1.000000000000000000 ) ) ;
#135 = PLANE ( 'NONE',  #297 ) ;
#136 = FACE_OUTER_BOUND ( 'NONE', #76, .T. ) ;
#137 = DATE_AND_TIME ( #238, #1 ) ;
#138 = CIRCLE ( 'NONE', #75, 3.049999999999992717 ) ;
#139 = ORGANIZATION ( 'UNSPECIFIED', 'UNSPECIFIED', '' ) ;
#140 = APPROVAL_STATUS ( 'not_yet_approved' ) ;
#141 = CARTESIAN_POINT ( 'NONE',  ( 6.398575597670457396E-15, -2.244318203168705832E-16, 1.832624888034074306 ) ) ;
#142 = PERSON ( 'UNSPECIFIED', 'UNSPECIFIED', 'UNSPECIFIED', ('UNSPECIFIED'), ('UNSPECIFIED'), ('UNSPECIFIED') ) ;
#143 = DIRECTION ( 'NONE',  ( 0.0000000000000000000, 1.000000000000000000, 0.0000000000000000000 ) ) ;
#144 = EDGE_CURVE ( 'NONE', #199, #286, #187, .T. ) ;
#145 = AXIS2_PLACEMENT_3D ( 'NONE', #141, #96, #274 ) ;
#146 = ORIENTED_EDGE ( 'NONE', *, *, #317, .F. ) ;
#147 = VECTOR ( 'NONE', #62, 1000.000000000000000 ) ;
#148 = CYLINDRICAL_SURFACE ( 'NONE', #183, 3.049999999999998046 ) ;
#149 = CARTESIAN_POINT ( 'NONE',  ( 6.398575597670457396E-15, -2.244318203168705832E-16, 1.832624888034074306 ) ) ;
#150 = DIRECTION ( 'NONE',  ( 1.000000000000000000, 0.0000000000000000000, 0.0000000000000000000 ) ) ;
#151 = ORIENTED_EDGE ( 'NONE', *, *, #153, .F. ) ;
#152 = DIRECTION ( 'NONE',  ( -3.491481338843133355E-15, 1.224646799147353207E-16, -1.000000000000000000 ) ) ;
#153 = EDGE_CURVE ( 'NONE', #168, #123, #17, .T. ) ;
#154 = PERSON_AND_ORGANIZATION_ROLE ( 'creator' ) ;
#155 = AXIS2_PLACEMENT_3D ( 'NONE', #314, #197, #143 ) ;
#156 = AXIS2_PLACEMENT_3D ( 'NONE', #240, #6, #109 ) ;
#157 = MECHANICAL_CONTEXT ( 'NONE', #108, 'mechanical' ) ;
#158 = EDGE_LOOP ( 'NONE', ( #32, #16, #291 ) ) ;
#159 = DIRECTION ( 'NONE',  ( -3.491481338843133355E-15, 1.224646799147353207E-16, -1.000000000000000000 ) ) ;
#160 = EDGE_CURVE ( 'NONE', #123, #286, #191, .T. ) ;
#161 = VERTEX_POINT ( 'NONE', #99 ) ;
#162 = SHAPE_DEFINITION_REPRESENTATION ( #245, #84 ) ;
#163 = CARTESIAN_POINT ( 'NONE',  ( 2.435123298861940654E-13, -2.350000000000009415, 70.00000000000000000 ) ) ;
#164 = DIRECTION ( 'NONE',  ( -4.275831445896958607E-31, -1.000000000000000000, -1.224646799147353207E-16 ) ) ;
#165 = ORIENTED_EDGE ( 'NONE', *, *, #186, .F. ) ;
#166 = ORIENTED_EDGE ( 'NONE', *, *, #179, .F. ) ;
#167 =( NAMED_UNIT ( * ) PLANE_ANGLE_UNIT ( ) SI_UNIT ( $, .RADIAN. ) );
#168 = VERTEX_POINT ( 'NONE', #212 ) ;
#169 = ORIENTED_EDGE ( 'NONE', *, *, #317, .T. ) ;
#170 = PERSON_AND_ORGANIZATION ( #142, #139 ) ;
#171 = VECTOR ( 'NONE', #193, 1000.000000000000114 ) ;
#172 = DIRECTION ( 'NONE',  ( -3.491481338843133355E-15, 1.224646799147353207E-16, -1.000000000000000000 ) ) ;
#173 = FACE_OUTER_BOUND ( 'NONE', #337, .T. ) ;
#174 = VECTOR ( 'NONE', #181, 1000.000000000000000 ) ;
#175 = DIRECTION ( 'NONE',  ( 0.0000000000000000000, 1.000000000000000000, 0.0000000000000000000 ) ) ;
#176 = CC_DESIGN_PERSON_AND_ORGANIZATION_ASSIGNMENT ( #170, #35, ( #28 ) ) ;
#177 = DIRECTION ( 'NONE',  ( 0.0000000000000000000, 0.0000000000000000000, 1.000000000000000000 ) ) ;
#178 = CARTESIAN_POINT ( 'NONE',  ( 2.446914857168189663E-13, -2.350000000000009415, 70.00000000000000000 ) ) ;
#179 = EDGE_CURVE ( 'NONE', #222, #254, #229, .T. ) ;
#180 = ADVANCED_FACE ( 'NONE', ( #319 ), #247, .T. ) ;
#181 = DIRECTION ( 'NONE',  ( -3.491481338843133355E-15, 1.224646799147353207E-16, -1.000000000000000000 ) ) ;
#182 = FACE_OUTER_BOUND ( 'NONE', #66, .T. ) ;
#183 = AXIS2_PLACEMENT_3D ( 'NONE', #228, #184, #8 ) ;
#184 = DIRECTION ( 'NONE',  ( -3.491481338843133355E-15, 1.224646799147353207E-16, -1.000000000000000000 ) ) ;
#185 = ORIENTED_EDGE ( 'NONE', *, *, #296, .F. ) ;
#186 = EDGE_CURVE ( 'NONE', #326, #254, #276, .T. ) ;
#187 = LINE ( 'NONE', #233, #305 ) ;
#188 = ORIENTED_EDGE ( 'NONE', *, *, #186, .T. ) ;
#189 = PRODUCT_DEFINITION ( 'UNKNOWN', '', #132, #192 ) ;
#190 = CARTESIAN_POINT ( 'NONE',  ( 8.030407079339205455E-14, 3.049999999999992273, 23.00000000000000000 ) ) ;
#191 = CIRCLE ( 'NONE', #280, 3.049999999999992717 ) ;
#192 = DESIGN_CONTEXT ( 'detailed design', #124, 'design' ) ;
#193 = DIRECTION ( 'NONE',  ( 1.903218546456021928E-15, 0.8571673007021098911, 0.5150380749100583744 ) ) ;
#194 = ORIENTED_EDGE ( 'NONE', *, *, #296, .T. ) ;
#195 = EDGE_CURVE ( 'NONE', #161, #123, #225, .T. ) ;
#196 = ORIENTED_EDGE ( 'NONE', *, *, #195, .T. ) ;
#197 = DIRECTION ( 'NONE',  ( -3.491481338843133355E-15, 1.224646799147353207E-16, -1.000000000000000000 ) ) ;
#198 = DATE_AND_TIME ( #206, #97 ) ;
#199 = VERTEX_POINT ( 'NONE', #309 ) ;
#200 = CARTESIAN_POINT ( 'NONE',  ( 2.444036937190193601E-13, -8.572527594031472993E-15, 70.00000000000000000 ) ) ;
#201 = PERSON_AND_ORGANIZATION_ROLE ( 'creator' ) ;
#202 = CC_DESIGN_PERSON_AND_ORGANIZATION_ASSIGNMENT ( #122, #295, ( #132 ) ) ;
#203 = CARTESIAN_POINT ( 'NONE',  ( 0.0000000000000000000, 0.0000000000000000000, 0.0000000000000000000 ) ) ;
#204 = DIRECTION ( 'NONE',  ( -3.491481338843133355E-15, 1.224646799147353207E-16, -1.000000000000000000 ) ) ;
#205 = DIRECTION ( 'NONE',  ( 0.0000000000000000000, 1.000000000000000000, 0.0000000000000000000 ) ) ;
#206 = CALENDAR_DATE ( 2021, 3, 9 ) ;
#207 = CONICAL_SURFACE ( 'NONE', #27, 2.350000000000000977, 0.7853981633974439491 ) ;
#208 = CIRCLE ( 'NONE', #156, 3.049999999999994937 ) ;
#209 = APPROVAL_DATE_TIME ( #53, #22 ) ;
#210 = DIRECTION ( 'NONE',  ( 5.051619526261613867E-31, 1.000000000000000000, 1.421904488505582859E-16 ) ) ;
#211 = DIRECTION ( 'NONE',  ( 4.275831445896958607E-31, 1.000000000000000000, 1.224646799147353207E-16 ) ) ;
#212 = CARTESIAN_POINT ( 'NONE',  ( 0.0000000000000000000, 0.0000000000000000000, 0.0000000000000000000 ) ) ;
#213 = CC_DESIGN_PERSON_AND_ORGANIZATION_ASSIGNMENT ( #307, #154, ( #132 ) ) ;
#214 = DIRECTION ( 'NONE',  ( -3.491481338843133355E-15, 1.224646799147353207E-16, -1.000000000000000000 ) ) ;
#215 = ORIENTED_EDGE ( 'NONE', *, *, #11, .T. ) ;
#216 = FACE_OUTER_BOUND ( 'NONE', #267, .T. ) ;
#217 = CARTESIAN_POINT ( 'NONE',  ( 0.0000000000000000000, 0.0000000000000000000, 0.0000000000000000000 ) ) ;
#218 = DIRECTION ( 'NONE',  ( -3.491481338843133355E-15, 1.224646799147353207E-16, -1.000000000000000000 ) ) ;
#219 = ORIENTED_EDGE ( 'NONE', *, *, #331, .F. ) ;
#220 = CARTESIAN_POINT ( 'NONE',  ( 0.0000000000000000000, 0.0000000000000000000, 0.0000000000000000000 ) ) ;
#221 = PRODUCT_RELATED_PRODUCT_CATEGORY ( 'detail', '', ( #324 ) ) ;
#222 = VERTEX_POINT ( 'NONE', #263 ) ;
#223 = COORDINATED_UNIVERSAL_TIME_OFFSET ( 1, 0, .AHEAD. ) ;
#224 = ORIENTED_EDGE ( 'NONE', *, *, #18, .T. ) ;
#225 = LINE ( 'NONE', #277, #174 ) ;
#226 = LOCAL_TIME ( 9, 21, 53.00000000000000000, #270 ) ;
#227 = ORIENTED_EDGE ( 'NONE', *, *, #121, .T. ) ;
#228 = CARTESIAN_POINT ( 'NONE',  ( 0.0000000000000000000, 0.0000000000000000000, 0.0000000000000000000 ) ) ;
#229 = CIRCLE ( 'NONE', #275, 3.050000000000001155 ) ;
#230 = CALENDAR_DATE ( 2021, 3, 9 ) ;
#231 = APPROVAL ( #130, 'UNSPECIFIED' ) ;
#232 = DIRECTION ( 'NONE',  ( -3.491481338843133355E-15, 1.224646799147353207E-16, -1.000000000000000000 ) ) ;
#233 = CARTESIAN_POINT ( 'NONE',  ( 1.304128590998569669E-30, 3.049999999999993605, 3.735172737399419751E-16 ) ) ;
#234 = AXIS2_PLACEMENT_3D ( 'NONE', #200, #204, #205 ) ;
#235 = AXIS2_PLACEMENT_3D ( 'NONE', #68, #310, #164 ) ;
#236 = VERTEX_POINT ( 'NONE', #190 ) ;
#237 = ORIENTED_EDGE ( 'NONE', *, *, #304, .T. ) ;
#238 = CALENDAR_DATE ( 2021, 3, 9 ) ;
#239 = EDGE_CURVE ( 'NONE', #254, #222, #321, .T. ) ;
#240 = CARTESIAN_POINT ( 'NONE',  ( 8.030407079339205455E-14, -2.816687638038912352E-15, 23.00000000000000000 ) ) ;
#241 = AXIS2_PLACEMENT_3D ( 'NONE', #217, #172, #335 ) ;
#242 = APPLICATION_PROTOCOL_DEFINITION ( 'international standard', 'config_control_design', 1994, #108 ) ;
#243 = PERSON_AND_ORGANIZATION ( #142, #139 ) ;
#244 = CARTESIAN_POINT ( 'NONE',  ( 2.444036937190193601E-13, -8.572527594031472993E-15, 70.00000000000000000 ) ) ;
#245 = PRODUCT_DEFINITION_SHAPE ( 'NONE', 'NONE',  #189 ) ;
#246 = EDGE_CURVE ( 'NONE', #115, #222, #289, .T. ) ;
#247 = CYLINDRICAL_SURFACE ( 'NONE', #311, 3.049999999999993605 ) ;
#248 = LINE ( 'NONE', #77, #287 ) ;
#249 = AXIS2_PLACEMENT_3D ( 'NONE', #114, #152, #211 ) ;
#250 = DIRECTION ( 'NONE',  ( 0.0000000000000000000, 1.000000000000000000, 0.0000000000000000000 ) ) ;
#251 = AXIS2_PLACEMENT_3D ( 'NONE', #336, #214, #83 ) ;
#252 = AXIS2_PLACEMENT_3D ( 'NONE', #86, #159, #306 ) ;
#253 = DIRECTION ( 'NONE',  ( 5.051619526261613867E-31, 1.000000000000000000, 1.421904488505582859E-16 ) ) ;
#254 = VERTEX_POINT ( 'NONE', #58 ) ;
#255 = CARTESIAN_POINT ( 'NONE',  ( 6.398575597670457396E-15, -2.244318203168705832E-16, 1.832624888034074306 ) ) ;
#256 = CIRCLE ( 'NONE', #104, 3.049999999999994937 ) ;
#257 = ORIENTED_EDGE ( 'NONE', *, *, #106, .F. ) ;
#258 = EDGE_LOOP ( 'NONE', ( #294, #219 ) ) ;
#259 = APPROVAL_PERSON_ORGANIZATION ( #14, #10, #318 ) ;
#260 = ADVANCED_FACE ( 'NONE', ( #131 ), #73, .T. ) ;
#261 = ORIENTED_EDGE ( 'NONE', *, *, #239, .T. ) ;
#262 = LINE ( 'NONE', #25, #171 ) ;
#263 = CARTESIAN_POINT ( 'NONE',  ( 2.419596567818291352E-13, 3.049999999999992273, 69.29999999999999716 ) ) ;
#264 = DIRECTION ( 'NONE',  ( 3.491481338843133355E-15, -1.224646799147353207E-16, 1.000000000000000000 ) ) ;
#265 = EDGE_LOOP ( 'NONE', ( #52, #169, #185, #257 ) ) ;
#266 = DATE_TIME_ROLE ( 'creation_date' ) ;
#267 = EDGE_LOOP ( 'NONE', ( #194, #237 ) ) ;
#268 = EDGE_LOOP ( 'NONE', ( #315, #196, #323, #330 ) ) ;
#269 = ADVANCED_FACE ( 'NONE', ( #313 ), #272, .T. ) ;
#270 = COORDINATED_UNIVERSAL_TIME_OFFSET ( 1, 0, .AHEAD. ) ;
#271 = CARTESIAN_POINT ( 'NONE',  ( 8.030407079339205455E-14, -2.816687638038912352E-15, 23.00000000000000000 ) ) ;
#272 = CYLINDRICAL_SURFACE ( 'NONE', #110, 3.049999999999993605 ) ;
#273 = DATE_TIME_ROLE ( 'classification_date' ) ;
#274 = DIRECTION ( 'NONE',  ( -5.051619526261613867E-31, -1.000000000000000000, -1.421904488505582859E-16 ) ) ;
#275 = AXIS2_PLACEMENT_3D ( 'NONE', #282, #71, #250 ) ;
#276 = LINE ( 'NONE', #178, #119 ) ;
#277 = CARTESIAN_POINT ( 'NONE',  ( 3.735172737399406932E-16, -3.049999999999993605, -3.735172737399432077E-16 ) ) ;
#278 = AXIS2_PLACEMENT_3D ( 'NONE', #203, #177, #150 ) ;
#279 = CC_DESIGN_DATE_AND_TIME_ASSIGNMENT ( #137, #266, ( #189 ) ) ;
#280 = AXIS2_PLACEMENT_3D ( 'NONE', #255, #47, #210 ) ;
#281 = CALENDAR_DATE ( 2021, 3, 9 ) ;
#282 = CARTESIAN_POINT ( 'NONE',  ( 2.419596567818291352E-13, -8.486802318091157127E-15, 69.29999999999999716 ) ) ;
#283 = ORIENTED_EDGE ( 'NONE', *, *, #331, .T. ) ;
#284 = ADVANCED_FACE ( 'NONE', ( #136 ), #298, .T. ) ;
#285 = MANIFOLD_SOLID_BREP ( 'Corps-Déplacer/Copier1[2]', #100 ) ;
#286 = VERTEX_POINT ( 'NONE', #3 ) ;
#287 = VECTOR ( 'NONE', #232, 1000.000000000000000 ) ;
#288 = APPROVAL_PERSON_ORGANIZATION ( #111, #231, #118 ) ;
#289 = LINE ( 'NONE', #50, #147 ) ;
#290 = CARTESIAN_POINT ( 'NONE',  ( 8.030407079339205455E-14, 2.287133668559325462E-32, 23.00000000000000000 ) ) ;
#291 = ORIENTED_EDGE ( 'NONE', *, *, #160, .T. ) ;
#292 = UNCERTAINTY_MEASURE_WITH_UNIT (LENGTH_MEASURE( 1.000000000000000082E-05 ), #59, 'distance_accuracy_value', 'NONE');
#293 = LINE ( 'NONE', #105, #19 ) ;
#294 = ORIENTED_EDGE ( 'NONE', *, *, #74, .F. ) ;
#295 = PERSON_AND_ORGANIZATION_ROLE ( 'design_supplier' ) ;
#296 = EDGE_CURVE ( 'NONE', #236, #103, #208, .T. ) ;
#297 = AXIS2_PLACEMENT_3D ( 'NONE', #290, #129, #63 ) ;
#298 = PLANE ( 'NONE',  #235 ) ;
#299 = APPROVAL_STATUS ( 'not_yet_approved' ) ;
#300 = ADVANCED_FACE ( 'NONE', ( #91 ), #329, .T. ) ;
#301 = DIRECTION ( 'NONE',  ( -3.491481338843133355E-15, 1.224646799147353207E-16, -1.000000000000000000 ) ) ;
#302 = CIRCLE ( 'NONE', #155, 3.049999999999994937 ) ;
#303 = CIRCLE ( 'NONE', #251, 2.350000000000000977 ) ;
#304 = EDGE_CURVE ( 'NONE', #103, #236, #90, .T. ) ;
#305 = VECTOR ( 'NONE', #332, 1000.000000000000000 ) ;
#306 = DIRECTION ( 'NONE',  ( 0.0000000000000000000, 1.000000000000000000, 0.0000000000000000000 ) ) ;
#307 = PERSON_AND_ORGANIZATION ( #142, #139 ) ;
#308 = CARTESIAN_POINT ( 'NONE',  ( 2.444036937190193601E-13, 2.349999999999992095, 70.00000000000000000 ) ) ;
#309 = CARTESIAN_POINT ( 'NONE',  ( 8.030407079339205455E-14, 3.049999999999992273, 23.00000000000000000 ) ) ;
#310 = DIRECTION ( 'NONE',  ( 3.491481338843133355E-15, -1.224646799147353207E-16, 1.000000000000000000 ) ) ;
#311 = AXIS2_PLACEMENT_3D ( 'NONE', #40, #301, #72 ) ;
#312 = CC_DESIGN_SECURITY_CLASSIFICATION ( #28, ( #132 ) ) ;
#313 = FACE_OUTER_BOUND ( 'NONE', #128, .T. ) ;
#314 = CARTESIAN_POINT ( 'NONE',  ( 8.030407079339205455E-14, -2.816687638038912352E-15, 23.00000000000000000 ) ) ;
#315 = ORIENTED_EDGE ( 'NONE', *, *, #49, .T. ) ;
#316 = LOCAL_TIME ( 9, 21, 53.00000000000000000, #81 ) ;
#317 = EDGE_CURVE ( 'NONE', #254, #103, #293, .T. ) ;
#318 = APPROVAL_ROLE ( '' ) ;
#319 = FACE_OUTER_BOUND ( 'NONE', #268, .T. ) ;
#320 = DIRECTION ( 'NONE',  ( -3.491481338843133355E-15, 1.224646799147353207E-16, -1.000000000000000000 ) ) ;
#321 = CIRCLE ( 'NONE', #252, 3.050000000000001155 ) ;
#322 = CC_DESIGN_PERSON_AND_ORGANIZATION_ASSIGNMENT ( #126, #117, ( #324 ) ) ;
#323 = ORIENTED_EDGE ( 'NONE', *, *, #121, .F. ) ;
#324 = PRODUCT ( '29762', '29762', '', ( #157 ) ) ;
#325 = VECTOR ( 'NONE', #46, 1000.000000000000000 ) ;
#326 = VERTEX_POINT ( 'NONE', #163 ) ;
#327 = APPROVAL_DATE_TIME ( #20, #231 ) ;
#328 = CONICAL_SURFACE ( 'NONE', #145, 3.049999999999992717, 1.029744258676649871 ) ;
#329 = CONICAL_SURFACE ( 'NONE', #55, 3.049999999999992717, 1.029744258676649871 ) ;
#330 = ORIENTED_EDGE ( 'NONE', *, *, #144, .F. ) ;
#331 = EDGE_CURVE ( 'NONE', #326, #115, #303, .T. ) ;
#332 = DIRECTION ( 'NONE',  ( -3.491481338843133355E-15, 1.224646799147353207E-16, -1.000000000000000000 ) ) ;
#333 = CARTESIAN_POINT ( 'NONE',  ( 8.030407079339205455E-14, -2.816687638038912352E-15, 23.00000000000000000 ) ) ;
#334 = ORIENTED_EDGE ( 'NONE', *, *, #144, .T. ) ;
#335 = DIRECTION ( 'NONE',  ( 4.275831445896958607E-31, 1.000000000000000000, 1.224646799147353207E-16 ) ) ;
#336 = CARTESIAN_POINT ( 'NONE',  ( 2.444036937190193601E-13, -8.572527594031472993E-15, 70.00000000000000000 ) ) ;
#337 = EDGE_LOOP ( 'NONE', ( #85, #188, #166, #33 ) ) ;
ENDSEC;
END-ISO-10303-21;
