ISO-10303-21;
HEADER;
FILE_DESCRIPTION (( 'STEP AP203' ),
    '1' );
FILE_NAME ('29761.step',
    '2021-09-03T07:21:53',
    ( '' ),
    ( '' ),
    'SwSTEP 2.0',
    'SolidWorks 2019',
    '' );
FILE_SCHEMA (( 'CONFIG_CONTROL_DESIGN' ));
ENDSEC;

DATA;
#1 = EDGE_LOOP ( 'NONE', ( #52, #137 ) ) ;
#2 = VERTEX_POINT ( 'NONE', #218 ) ;
#3 = CONICAL_SURFACE ( 'NONE', #223, 2.050000000000000711, 0.7853981633974450594 ) ;
#4 = CC_DESIGN_APPROVAL ( #146, ( #241 ) ) ;
#5 = FACE_OUTER_BOUND ( 'NONE', #23, .T. ) ;
#6 = CARTESIAN_POINT ( 'NONE',  ( 2.143769542049683754E-13, -7.519331346764748510E-15, 61.39999999999999858 ) ) ;
#7 = ORIENTED_EDGE ( 'NONE', *, *, #105, .T. ) ;
#8 = ORIENTED_EDGE ( 'NONE', *, *, #160, .T. ) ;
#9 = EDGE_CURVE ( 'NONE', #238, #313, #325, .T. ) ;
#10 = LINE ( 'NONE', #113, #79 ) ;
#11 = DIRECTION ( 'NONE',  ( 0.0000000000000000000, 1.000000000000000000, 0.0000000000000000000 ) ) ;
#12 = ORIENTED_EDGE ( 'NONE', *, *, #304, .F. ) ;
#13 = APPROVAL_PERSON_ORGANIZATION ( #232, #146, #183 ) ;
#14 = ADVANCED_BREP_SHAPE_REPRESENTATION ( '29761', ( #283, #170, #250 ), #271 ) ;
#15 = DIRECTION ( 'NONE',  ( -3.491481338843133355E-15, 1.224646799147353207E-16, -1.000000000000000000 ) ) ;
#16 = EDGE_LOOP ( 'NONE', ( #235, #309, #301, #289 ) ) ;
#17 = DIRECTION ( 'NONE',  ( 1.798245827342160317E-15, -0.8571673007021098911, 0.5150380749100582634 ) ) ;
#18 = DIRECTION ( 'NONE',  ( -3.491481338843133355E-15, 1.224646799147353207E-16, -1.000000000000000000 ) ) ;
#19 = CYLINDRICAL_SURFACE ( 'NONE', #61, 2.649999999999997691 ) ;
#20 = CIRCLE ( 'NONE', #167, 2.050000000000000711 ) ;
#21 = PERSON_AND_ORGANIZATION ( #211, #332 ) ;
#22 = VECTOR ( 'NONE', #87, 999.9999999999998863 ) ;
#23 = EDGE_LOOP ( 'NONE', ( #110, #336, #186, #251 ) ) ;
#24 = DIRECTION ( 'NONE',  ( 4.275831445896959482E-31, 1.000000000000000000, 1.224646799147353207E-16 ) ) ;
#25 = CALENDAR_DATE ( 2021, 3, 9 ) ;
#26 = PERSON_AND_ORGANIZATION ( #211, #332 ) ;
#27 = EDGE_LOOP ( 'NONE', ( #158, #277, #8 ) ) ;
#28 = DIRECTION ( 'NONE',  ( 3.491481338843133355E-15, -1.224646799147353207E-16, 1.000000000000000000 ) ) ;
#29 = APPROVAL_DATE_TIME ( #154, #146 ) ;
#30 = ADVANCED_FACE ( 'NONE', ( #210 ), #310, .T. ) ;
#31 = AXIS2_PLACEMENT_3D ( 'NONE', #290, #217, #62 ) ;
#32 = CC_DESIGN_PERSON_AND_ORGANIZATION_ASSIGNMENT ( #161, #261, ( #122 ) ) ;
#33 = VERTEX_POINT ( 'NONE', #72 ) ;
#34 = CARTESIAN_POINT ( 'NONE',  ( 2.164718430082742680E-13, -7.592810154713590230E-15, 62.00000000000000000 ) ) ;
#35 = VERTEX_POINT ( 'NONE', #172 ) ;
#36 = FACE_OUTER_BOUND ( 'NONE', #298, .T. ) ;
#37 = DIRECTION ( 'NONE',  ( 3.491481338843133355E-15, -1.224646799147353207E-16, 1.000000000000000000 ) ) ;
#38 = CARTESIAN_POINT ( 'NONE',  ( 1.424278218926895530E-13, -2.649999999999997691, 20.00000000000000000 ) ) ;
#39 = CARTESIAN_POINT ( 'NONE',  ( 3.245314017740467720E-16, -2.649999999999994138, -3.245314017740489906E-16 ) ) ;
#40 = CIRCLE ( 'NONE', #226, 2.649999999999995026 ) ;
#41 = EDGE_CURVE ( 'NONE', #2, #81, #194, .T. ) ;
#42 = AXIS2_PLACEMENT_3D ( 'NONE', #245, #274, #174 ) ;
#43 = DIRECTION ( 'NONE',  ( -2.468850131082272838E-15, 0.7071067811865453523, -0.7071067811865496822 ) ) ;
#44 = PERSON_AND_ORGANIZATION ( #211, #332 ) ;
#45 = APPROVAL_DATE_TIME ( #76, #185 ) ;
#46 = VECTOR ( 'NONE', #179, 1000.000000000000000 ) ;
#47 = CC_DESIGN_SECURITY_CLASSIFICATION ( #122, ( #241 ) ) ;
#48 = LINE ( 'NONE', #302, #46 ) ;
#49 = DIRECTION ( 'NONE',  ( -3.491481338843133355E-15, 1.224646799147353207E-16, -1.000000000000000000 ) ) ;
#50 = COORDINATED_UNIVERSAL_TIME_OFFSET ( 1, 0, .AHEAD. ) ;
#51 = ORIENTED_EDGE ( 'NONE', *, *, #304, .T. ) ;
#52 = ORIENTED_EDGE ( 'NONE', *, *, #141, .T. ) ;
#53 = DIRECTION ( 'NONE',  ( -3.491481338843133355E-15, 1.224646799147353207E-16, -1.000000000000000000 ) ) ;
#54 = DIRECTION ( 'NONE',  ( 2.907064066999609236E-31, 1.000000000000000000, 8.182657905550999233E-17 ) ) ;
#55 = ORIENTED_EDGE ( 'NONE', *, *, #207, .F. ) ;
#56 = CARTESIAN_POINT ( 'NONE',  ( 5.883949544012313580E-15, 2.649999999999992806, 1.592280640423048066 ) ) ;
#57 = DIRECTION ( 'NONE',  ( -4.275831445896958607E-31, -1.000000000000000000, -1.224646799147353207E-16 ) ) ;
#58 = ORIENTED_EDGE ( 'NONE', *, *, #41, .T. ) ;
#59 = CYLINDRICAL_SURFACE ( 'NONE', #31, 2.649999999999994138 ) ;
#60 = AXIS2_PLACEMENT_3D ( 'NONE', #196, #145, #123 ) ;
#61 = AXIS2_PLACEMENT_3D ( 'NONE', #268, #171, #222 ) ;
#62 = DIRECTION ( 'NONE',  ( 4.275831445896958607E-31, 1.000000000000000000, 1.224646799147353207E-16 ) ) ;
#63 = ORIENTED_EDGE ( 'NONE', *, *, #227, .T. ) ;
#64 = ORIENTED_EDGE ( 'NONE', *, *, #141, .F. ) ;
#65 = DIRECTION ( 'NONE',  ( -2.907064066999609236E-31, -1.000000000000000000, -8.182657905550999233E-17 ) ) ;
#66 = CARTESIAN_POINT ( 'NONE',  ( 6.982962677686266711E-14, -2.449293598294706513E-15, 20.00000000000000000 ) ) ;
#67 = DIRECTION ( 'NONE',  ( 2.907064066999609236E-31, 1.000000000000000000, 8.182657905550999233E-17 ) ) ;
#68 = DIRECTION ( 'NONE',  ( 0.0000000000000000000, 1.000000000000000000, 0.0000000000000000000 ) ) ;
#69 = CARTESIAN_POINT ( 'NONE',  ( 1.424278218926894520E-13, -2.650000000000007017, 61.39999999999999858 ) ) ;
#70 = ORIENTED_EDGE ( 'NONE', *, *, #168, .T. ) ;
#71 = ADVANCED_FACE ( 'NONE', ( #114 ), #92, .F. ) ;
#72 = CARTESIAN_POINT ( 'NONE',  ( 5.883949544012313580E-15, 2.649999999999992806, 1.592280640423048066 ) ) ;
#73 = ORIENTED_EDGE ( 'NONE', *, *, #9, .F. ) ;
#74 = ADVANCED_FACE ( 'NONE', ( #270 ), #324, .T. ) ;
#75 = ORIENTED_EDGE ( 'NONE', *, *, #273, .T. ) ;
#76 = DATE_AND_TIME ( #100, #103 ) ;
#77 = CYLINDRICAL_SURFACE ( 'NONE', #203, 2.649999999999997691 ) ;
#78 = APPROVAL_STATUS ( 'not_yet_approved' ) ;
#79 = VECTOR ( 'NONE', #53, 1000.000000000000000 ) ;
#80 = AXIS2_PLACEMENT_3D ( 'NONE', #319, #296, #68 ) ;
#81 = VERTEX_POINT ( 'NONE', #69 ) ;
#82 = EDGE_CURVE ( 'NONE', #99, #35, #40, .T. ) ;
#83 = VERTEX_POINT ( 'NONE', #142 ) ;
#84 = ORIENTED_EDGE ( 'NONE', *, *, #224, .F. ) ;
#85 = LINE ( 'NONE', #56, #22 ) ;
#86 = CC_DESIGN_DATE_AND_TIME_ASSIGNMENT ( #102, #254, ( #122 ) ) ;
#87 = DIRECTION ( 'NONE',  ( 1.903218546456022717E-15, 0.8571673007021097801, 0.5150380749100585964 ) ) ;
#88 = AXIS2_PLACEMENT_3D ( 'NONE', #195, #323, #276 ) ;
#89 = CARTESIAN_POINT ( 'NONE',  ( 5.559418142238264491E-15, -2.649999999999992806, 1.592280640423047622 ) ) ;
#90 = DIRECTION ( 'NONE',  ( 4.275831445896958607E-31, 1.000000000000000000, 1.224646799147353207E-16 ) ) ;
#91 = CC_DESIGN_PERSON_AND_ORGANIZATION_ASSIGNMENT ( #133, #334, ( #241 ) ) ;
#92 = PLANE ( 'NONE',  #95 ) ;
#93 = DIRECTION ( 'NONE',  ( 0.0000000000000000000, 1.000000000000000000, 0.0000000000000000000 ) ) ;
#94 = APPLICATION_CONTEXT ( 'configuration controlled 3d designs of mechanical parts and assemblies' ) ;
#95 = AXIS2_PLACEMENT_3D ( 'NONE', #318, #221, #90 ) ;
#96 = PRODUCT_DEFINITION ( 'UNKNOWN', '', #241, #225 ) ;
#97 =( NAMED_UNIT ( * ) PLANE_ANGLE_UNIT ( ) SI_UNIT ( $, .RADIAN. ) );
#98 = AXIS2_PLACEMENT_3D ( 'NONE', #220, #320, #93 ) ;
#99 = VERTEX_POINT ( 'NONE', #38 ) ;
#100 = CALENDAR_DATE ( 2021, 3, 9 ) ;
#101 = ORIENTED_EDGE ( 'NONE', *, *, #134, .F. ) ;
#102 = DATE_AND_TIME ( #25, #148 ) ;
#103 = LOCAL_TIME ( 9, 21, 53.00000000000000000, #278 ) ;
#104 = ORIENTED_EDGE ( 'NONE', *, *, #178, .F. ) ;
#105 = EDGE_CURVE ( 'NONE', #83, #253, #300, .T. ) ;
#106 = CARTESIAN_POINT ( 'NONE',  ( 0.0000000000000000000, 0.0000000000000000000, 0.0000000000000000000 ) ) ;
#107 = SECURITY_CLASSIFICATION_LEVEL ( 'unclassified' ) ;
#108 = CC_DESIGN_PERSON_AND_ORGANIZATION_ASSIGNMENT ( #21, #126, ( #117 ) ) ;
#109 = AXIS2_PLACEMENT_3D ( 'NONE', #257, #28, #65 ) ;
#110 = ORIENTED_EDGE ( 'NONE', *, *, #9, .T. ) ;
#111 = DIRECTION ( 'NONE',  ( -3.491481338843133355E-15, 1.224646799147353207E-16, -1.000000000000000000 ) ) ;
#112 = ORIENTED_EDGE ( 'NONE', *, *, #202, .T. ) ;
#113 = CARTESIAN_POINT ( 'NONE',  ( 1.133095333162693181E-30, 2.649999999999997691, 3.245314017740483497E-16 ) ) ;
#114 = FACE_OUTER_BOUND ( 'NONE', #188, .T. ) ;
#115 = AXIS2_PLACEMENT_3D ( 'NONE', #118, #219, #322 ) ;
#116 = APPROVAL ( #132, 'UNSPECIFIED' ) ;
#117 = PRODUCT ( '29761', '29761', '', ( #246 ) ) ;
#118 = CARTESIAN_POINT ( 'NONE',  ( 6.982962677686266711E-14, 1.987181712026953941E-32, 20.00000000000000000 ) ) ;
#119 = DIRECTION ( 'NONE',  ( 0.0000000000000000000, 1.000000000000000000, 0.0000000000000000000 ) ) ;
#120 = EDGE_CURVE ( 'NONE', #2, #180, #20, .T. ) ;
#121 = CONICAL_SURFACE ( 'NONE', #109, 2.649999999999992806, 1.029744258676649649 ) ;
#122 = SECURITY_CLASSIFICATION ( '', '', #107 ) ;
#123 = DIRECTION ( 'NONE',  ( 0.0000000000000000000, 1.000000000000000000, 0.0000000000000000000 ) ) ;
#124 =( NAMED_UNIT ( * ) SI_UNIT ( $, .STERADIAN. ) SOLID_ANGLE_UNIT ( ) );
#125 = COORDINATED_UNIVERSAL_TIME_OFFSET ( 1, 0, .AHEAD. ) ;
#126 = PERSON_AND_ORGANIZATION_ROLE ( 'design_owner' ) ;
#127 = PRODUCT_DEFINITION_SHAPE ( 'NONE', 'NONE',  #96 ) ;
#128 = EDGE_LOOP ( 'NONE', ( #104, #204, #259, #55 ) ) ;
#129 = VECTOR ( 'NONE', #43, 1000.000000000000000 ) ;
#130 = APPLICATION_CONTEXT ( 'configuration controlled 3d designs of mechanical parts and assemblies' ) ;
#131 = CIRCLE ( 'NONE', #88, 2.050000000000000711 ) ;
#132 = APPROVAL_STATUS ( 'not_yet_approved' ) ;
#133 = PERSON_AND_ORGANIZATION ( #211, #332 ) ;
#134 = EDGE_CURVE ( 'NONE', #313, #238, #229, .T. ) ;
#135 = LINE ( 'NONE', #153, #143 ) ;
#136 = AXIS2_PLACEMENT_3D ( 'NONE', #6, #111, #312 ) ;
#137 = ORIENTED_EDGE ( 'NONE', *, *, #82, .T. ) ;
#138 = CARTESIAN_POINT ( 'NONE',  ( 0.0000000000000000000, 0.0000000000000000000, 0.0000000000000000000 ) ) ;
#139 = DIRECTION ( 'NONE',  ( -3.491481338843133355E-15, 1.224646799147353207E-16, -1.000000000000000000 ) ) ;
#140 = EDGE_LOOP ( 'NONE', ( #84, #7, #287 ) ) ;
#141 = EDGE_CURVE ( 'NONE', #35, #99, #269, .T. ) ;
#142 = CARTESIAN_POINT ( 'NONE',  ( 0.0000000000000000000, 0.0000000000000000000, 0.0000000000000000000 ) ) ;
#143 = VECTOR ( 'NONE', #256, 1000.000000000000000 ) ;
#144 = DIRECTION ( 'NONE',  ( 4.275831445896958607E-31, 1.000000000000000000, 1.224646799147353207E-16 ) ) ;
#145 = DIRECTION ( 'NONE',  ( -3.491481338843133355E-15, 1.224646799147353207E-16, -1.000000000000000000 ) ) ;
#146 = APPROVAL ( #78, 'UNSPECIFIED' ) ;
#147 = DIRECTION ( 'NONE',  ( -3.491481338843133355E-15, 1.224646799147353207E-16, -1.000000000000000000 ) ) ;
#148 = LOCAL_TIME ( 9, 21, 53.00000000000000000, #252 ) ;
#149 = DIRECTION ( 'NONE',  ( 0.0000000000000000000, 0.0000000000000000000, 1.000000000000000000 ) ) ;
#150 = FACE_OUTER_BOUND ( 'NONE', #258, .T. ) ;
#151 = EDGE_CURVE ( 'NONE', #180, #316, #200, .T. ) ;
#152 = CALENDAR_DATE ( 2021, 3, 9 ) ;
#153 = CARTESIAN_POINT ( 'NONE',  ( 3.245314017740472650E-16, -2.649999999999997691, -3.245314017740494837E-16 ) ) ;
#154 = DATE_AND_TIME ( #152, #176 ) ;
#155 = ORIENTED_EDGE ( 'NONE', *, *, #82, .F. ) ;
#156 = FACE_OUTER_BOUND ( 'NONE', #140, .T. ) ;
#157 = APPROVAL_PERSON_ORGANIZATION ( #44, #185, #305 ) ;
#158 = ORIENTED_EDGE ( 'NONE', *, *, #105, .F. ) ;
#159 = UNCERTAINTY_MEASURE_WITH_UNIT (LENGTH_MEASURE( 1.000000000000000082E-05 ), #165, 'distance_accuracy_value', 'NONE');
#160 = EDGE_CURVE ( 'NONE', #33, #253, #197, .T. ) ;
#161 = PERSON_AND_ORGANIZATION ( #211, #332 ) ;
#162 = AXIS2_PLACEMENT_3D ( 'NONE', #192, #37, #295 ) ;
#163 = DIRECTION ( 'NONE',  ( 3.491481338843133355E-15, -1.224646799147353207E-16, 1.000000000000000000 ) ) ;
#164 = DIRECTION ( 'NONE',  ( -3.491481338843133355E-15, 1.224646799147353207E-16, -1.000000000000000000 ) ) ;
#165 =( LENGTH_UNIT ( ) NAMED_UNIT ( * ) SI_UNIT ( .MILLI., .METRE. ) );
#166 = CARTESIAN_POINT ( 'NONE',  ( 5.559418142238264491E-15, -2.649999999999992806, 1.592280640423047622 ) ) ;
#167 = AXIS2_PLACEMENT_3D ( 'NONE', #243, #164, #267 ) ;
#168 = EDGE_CURVE ( 'NONE', #180, #2, #131, .T. ) ;
#169 = AXIS2_PLACEMENT_3D ( 'NONE', #212, #163, #57 ) ;
#170 = MANIFOLD_SOLID_BREP ( 'Corps-Déplacer/Copier1[2]', #275 ) ;
#171 = DIRECTION ( 'NONE',  ( -3.491481338843133355E-15, 1.224646799147353207E-16, -1.000000000000000000 ) ) ;
#172 = CARTESIAN_POINT ( 'NONE',  ( 6.982962677686266711E-14, 2.649999999999992806, 20.00000000000000000 ) ) ;
#173 = CARTESIAN_POINT ( 'NONE',  ( 2.164718430082742680E-13, 2.049999999999992717, 62.00000000000000000 ) ) ;
#174 = DIRECTION ( 'NONE',  ( 0.0000000000000000000, 1.000000000000000000, 0.0000000000000000000 ) ) ;
#175 = DIRECTION ( 'NONE',  ( -3.491481338843133355E-15, 1.224646799147353207E-16, -1.000000000000000000 ) ) ;
#176 = LOCAL_TIME ( 9, 21, 53.00000000000000000, #50 ) ;
#177 = CC_DESIGN_DATE_AND_TIME_ASSIGNMENT ( #282, #187, ( #96 ) ) ;
#178 = EDGE_CURVE ( 'NONE', #313, #253, #272, .T. ) ;
#179 = DIRECTION ( 'NONE',  ( -3.491481338843133355E-15, 1.224646799147353207E-16, -1.000000000000000000 ) ) ;
#180 = VERTEX_POINT ( 'NONE', #244 ) ;
#181 = AXIS2_PLACEMENT_3D ( 'NONE', #308, #284, #54 ) ;
#182 = CALENDAR_DATE ( 2021, 3, 9 ) ;
#183 = APPROVAL_ROLE ( '' ) ;
#184 = AXIS2_PLACEMENT_3D ( 'NONE', #138, #175, #144 ) ;
#185 = APPROVAL ( #248, 'UNSPECIFIED' ) ;
#186 = ORIENTED_EDGE ( 'NONE', *, *, #160, .F. ) ;
#187 = DATE_TIME_ROLE ( 'creation_date' ) ;
#188 = EDGE_LOOP ( 'NONE', ( #265, #328 ) ) ;
#189 = FACE_OUTER_BOUND ( 'NONE', #128, .T. ) ;
#190 = CARTESIAN_POINT ( 'NONE',  ( 6.982962677686266711E-14, -2.449293598294706513E-15, 20.00000000000000000 ) ) ;
#191 = LOCAL_TIME ( 9, 21, 53.00000000000000000, #125 ) ;
#192 = CARTESIAN_POINT ( 'NONE',  ( 5.559418142238265280E-15, -1.949981389638383283E-16, 1.592280640423047844 ) ) ;
#193 = EDGE_CURVE ( 'NONE', #238, #33, #48, .T. ) ;
#194 = LINE ( 'NONE', #240, #303 ) ;
#195 = CARTESIAN_POINT ( 'NONE',  ( 2.164718430082742680E-13, -7.592810154713590230E-15, 62.00000000000000000 ) ) ;
#196 = CARTESIAN_POINT ( 'NONE',  ( 6.982962677686266711E-14, -2.449293598294706513E-15, 20.00000000000000000 ) ) ;
#197 = CIRCLE ( 'NONE', #208, 2.649999999999992806 ) ;
#198 = CC_DESIGN_APPROVAL ( #116, ( #122 ) ) ;
#199 = CARTESIAN_POINT ( 'NONE',  ( 5.559418142238265280E-15, -1.949981389638383283E-16, 1.592280640423047844 ) ) ;
#200 = LINE ( 'NONE', #173, #129 ) ;
#201 = APPLICATION_PROTOCOL_DEFINITION ( 'international standard', 'config_control_design', 1994, #94 ) ;
#202 = EDGE_CURVE ( 'NONE', #81, #99, #135, .T. ) ;
#203 = AXIS2_PLACEMENT_3D ( 'NONE', #106, #49, #24 ) ;
#204 = ORIENTED_EDGE ( 'NONE', *, *, #134, .T. ) ;
#205 = DIRECTION ( 'NONE',  ( 1.000000000000000000, 0.0000000000000000000, 0.0000000000000000000 ) ) ;
#206 = CARTESIAN_POINT ( 'NONE',  ( 3.801905386132448649E-14, -2.649999999999997247, 20.00000000000000000 ) ) ;
#207 = EDGE_CURVE ( 'NONE', #253, #33, #234, .T. ) ;
#208 = AXIS2_PLACEMENT_3D ( 'NONE', #199, #18, #67 ) ;
#209 = LOCAL_TIME ( 9, 21, 53.00000000000000000, #330 ) ;
#210 = FACE_OUTER_BOUND ( 'NONE', #247, .T. ) ;
#211 = PERSON ( 'UNSPECIFIED', 'UNSPECIFIED', 'UNSPECIFIED', ('UNSPECIFIED'), ('UNSPECIFIED'), ('UNSPECIFIED') ) ;
#212 = CARTESIAN_POINT ( 'NONE',  ( 6.982962677686266711E-14, 1.987181712026953941E-32, 20.00000000000000000 ) ) ;
#213 = CIRCLE ( 'NONE', #136, 2.649999999999999911 ) ;
#214 = FACE_OUTER_BOUND ( 'NONE', #1, .T. ) ;
#215 = CALENDAR_DATE ( 2021, 3, 9 ) ;
#216 = CC_DESIGN_PERSON_AND_ORGANIZATION_ASSIGNMENT ( #281, #337, ( #241 ) ) ;
#217 = DIRECTION ( 'NONE',  ( -3.491481338843133355E-15, 1.224646799147353207E-16, -1.000000000000000000 ) ) ;
#218 = CARTESIAN_POINT ( 'NONE',  ( 2.157121906044209531E-13, -2.050000000000008260, 62.00000000000000000 ) ) ;
#219 = DIRECTION ( 'NONE',  ( 3.491481338843133355E-15, -1.224646799147353207E-16, 1.000000000000000000 ) ) ;
#220 = CARTESIAN_POINT ( 'NONE',  ( 6.982962677686266711E-14, -2.449293598294706513E-15, 20.00000000000000000 ) ) ;
#221 = DIRECTION ( 'NONE',  ( -3.491481338843133355E-15, 1.224646799147353207E-16, -1.000000000000000000 ) ) ;
#222 = DIRECTION ( 'NONE',  ( 4.275831445896959482E-31, 1.000000000000000000, 1.224646799147353207E-16 ) ) ;
#223 = AXIS2_PLACEMENT_3D ( 'NONE', #34, #139, #237 ) ;
#224 = EDGE_CURVE ( 'NONE', #83, #33, #85, .T. ) ;
#225 = DESIGN_CONTEXT ( 'detailed design', #130, 'design' ) ;
#226 = AXIS2_PLACEMENT_3D ( 'NONE', #66, #15, #119 ) ;
#227 = EDGE_CURVE ( 'NONE', #81, #316, #213, .T. ) ;
#228 = APPLICATION_PROTOCOL_DEFINITION ( 'international standard', 'config_control_design', 1994, #130 ) ;
#229 = CIRCLE ( 'NONE', #98, 2.649999999999995026 ) ;
#230 = APPROVAL_ROLE ( '' ) ;
#231 = CC_DESIGN_PERSON_AND_ORGANIZATION_ASSIGNMENT ( #249, #327, ( #96 ) ) ;
#232 = PERSON_AND_ORGANIZATION ( #211, #332 ) ;
#233 = ORIENTED_EDGE ( 'NONE', *, *, #273, .F. ) ;
#234 = CIRCLE ( 'NONE', #181, 2.649999999999992806 ) ;
#235 = ORIENTED_EDGE ( 'NONE', *, *, #41, .F. ) ;
#236 = ORIENTED_EDGE ( 'NONE', *, *, #202, .F. ) ;
#237 = DIRECTION ( 'NONE',  ( 0.0000000000000000000, 1.000000000000000000, 0.0000000000000000000 ) ) ;
#238 = VERTEX_POINT ( 'NONE', #311 ) ;
#239 = VECTOR ( 'NONE', #17, 1000.000000000000000 ) ;
#240 = CARTESIAN_POINT ( 'NONE',  ( 2.167228956020994612E-13, -2.050000000000008260, 62.00000000000000000 ) ) ;
#241 = PRODUCT_DEFINITION_FORMATION_WITH_SPECIFIED_SOURCE ( 'ANY', '', #117, .NOT_KNOWN. ) ;
#242 = FACE_OUTER_BOUND ( 'NONE', #315, .T. ) ;
#243 = CARTESIAN_POINT ( 'NONE',  ( 2.164718430082742680E-13, -7.592810154713590230E-15, 62.00000000000000000 ) ) ;
#244 = CARTESIAN_POINT ( 'NONE',  ( 2.164718430082742680E-13, 2.049999999999992717, 62.00000000000000000 ) ) ;
#245 = CARTESIAN_POINT ( 'NONE',  ( 2.143769542049683754E-13, -7.519331346764748510E-15, 61.39999999999999858 ) ) ;
#246 = MECHANICAL_CONTEXT ( 'NONE', #94, 'mechanical' ) ;
#247 = EDGE_LOOP ( 'NONE', ( #73, #101 ) ) ;
#248 = APPROVAL_STATUS ( 'not_yet_approved' ) ;
#249 = PERSON_AND_ORGANIZATION ( #211, #332 ) ;
#250 = AXIS2_PLACEMENT_3D ( 'NONE', #331, #149, #205 ) ;
#251 = ORIENTED_EDGE ( 'NONE', *, *, #193, .F. ) ;
#252 = COORDINATED_UNIVERSAL_TIME_OFFSET ( 1, 0, .AHEAD. ) ;
#253 = VERTEX_POINT ( 'NONE', #89 ) ;
#254 = DATE_TIME_ROLE ( 'classification_date' ) ;
#255 = ADVANCED_FACE ( 'NONE', ( #5 ), #59, .T. ) ;
#256 = DIRECTION ( 'NONE',  ( -3.491481338843133355E-15, 1.224646799147353207E-16, -1.000000000000000000 ) ) ;
#257 = CARTESIAN_POINT ( 'NONE',  ( 5.559418142238265280E-15, -1.949981389638383283E-16, 1.592280640423047844 ) ) ;
#258 = EDGE_LOOP ( 'NONE', ( #51, #112, #64, #233 ) ) ;
#259 = ORIENTED_EDGE ( 'NONE', *, *, #193, .T. ) ;
#260 = ADVANCED_FACE ( 'NONE', ( #266 ), #3, .T. ) ;
#261 = PERSON_AND_ORGANIZATION_ROLE ( 'classification_officer' ) ;
#262 = ORIENTED_EDGE ( 'NONE', *, *, #151, .F. ) ;
#263 = SHAPE_DEFINITION_REPRESENTATION ( #127, #14 ) ;
#264 = CC_DESIGN_APPROVAL ( #185, ( #96 ) ) ;
#265 = ORIENTED_EDGE ( 'NONE', *, *, #168, .F. ) ;
#266 = FACE_OUTER_BOUND ( 'NONE', #16, .T. ) ;
#267 = DIRECTION ( 'NONE',  ( 0.0000000000000000000, 1.000000000000000000, 0.0000000000000000000 ) ) ;
#268 = CARTESIAN_POINT ( 'NONE',  ( 0.0000000000000000000, 0.0000000000000000000, 0.0000000000000000000 ) ) ;
#269 = CIRCLE ( 'NONE', #60, 2.649999999999995026 ) ;
#270 = FACE_OUTER_BOUND ( 'NONE', #27, .T. ) ;
#271 =( GEOMETRIC_REPRESENTATION_CONTEXT ( 3 ) GLOBAL_UNCERTAINTY_ASSIGNED_CONTEXT ( ( #159 ) ) GLOBAL_UNIT_ASSIGNED_CONTEXT ( ( #165, #97, #124 ) ) REPRESENTATION_CONTEXT ( 'NONE', 'WORKASPACE' ) );
#272 = LINE ( 'NONE', #39, #285 ) ;
#273 = EDGE_CURVE ( 'NONE', #316, #35, #10, .T. ) ;
#274 = DIRECTION ( 'NONE',  ( -3.491481338843133355E-15, 1.224646799147353207E-16, -1.000000000000000000 ) ) ;
#275 = CLOSED_SHELL ( 'NONE', ( #255, #74, #280, #329, #30 ) ) ;
#276 = DIRECTION ( 'NONE',  ( 0.0000000000000000000, 1.000000000000000000, 0.0000000000000000000 ) ) ;
#277 = ORIENTED_EDGE ( 'NONE', *, *, #224, .T. ) ;
#278 = COORDINATED_UNIVERSAL_TIME_OFFSET ( 1, 0, .AHEAD. ) ;
#279 = CONICAL_SURFACE ( 'NONE', #80, 2.050000000000000711, 0.7853981633974450594 ) ;
#280 = ADVANCED_FACE ( 'NONE', ( #156 ), #121, .T. ) ;
#281 = PERSON_AND_ORGANIZATION ( #211, #332 ) ;
#282 = DATE_AND_TIME ( #215, #209 ) ;
#283 = MANIFOLD_SOLID_BREP ( 'Corps-Déplacer/Copier1[1]', #306 ) ;
#284 = DIRECTION ( 'NONE',  ( -3.491481338843133355E-15, 1.224646799147353207E-16, -1.000000000000000000 ) ) ;
#285 = VECTOR ( 'NONE', #147, 1000.000000000000000 ) ;
#286 = DATE_AND_TIME ( #182, #191 ) ;
#287 = ORIENTED_EDGE ( 'NONE', *, *, #207, .T. ) ;
#288 = ADVANCED_FACE ( 'NONE', ( #36 ), #279, .T. ) ;
#289 = ORIENTED_EDGE ( 'NONE', *, *, #227, .F. ) ;
#290 = CARTESIAN_POINT ( 'NONE',  ( 0.0000000000000000000, 0.0000000000000000000, 0.0000000000000000000 ) ) ;
#291 = APPROVAL_PERSON_ORGANIZATION ( #26, #116, #230 ) ;
#292 = DIRECTION ( 'NONE',  ( -3.491481338843133355E-15, 1.224646799147353207E-16, -1.000000000000000000 ) ) ;
#293 = APPROVAL_DATE_TIME ( #286, #116 ) ;
#294 = ADVANCED_FACE ( 'NONE', ( #242 ), #19, .T. ) ;
#295 = DIRECTION ( 'NONE',  ( -2.907064066999609236E-31, -1.000000000000000000, -8.182657905550999233E-17 ) ) ;
#296 = DIRECTION ( 'NONE',  ( -3.491481338843133355E-15, 1.224646799147353207E-16, -1.000000000000000000 ) ) ;
#297 = DIRECTION ( 'NONE',  ( -2.382254525458724175E-15, -0.7071067811865451302, -0.7071067811865499042 ) ) ;
#298 = EDGE_LOOP ( 'NONE', ( #70, #58, #12, #262 ) ) ;
#299 = AXIS2_PLACEMENT_3D ( 'NONE', #190, #292, #11 ) ;
#300 = LINE ( 'NONE', #166, #239 ) ;
#301 = ORIENTED_EDGE ( 'NONE', *, *, #151, .T. ) ;
#302 = CARTESIAN_POINT ( 'NONE',  ( 1.133095333162691430E-30, 2.649999999999994138, 3.245314017740478566E-16 ) ) ;
#303 = VECTOR ( 'NONE', #297, 1000.000000000000114 ) ;
#304 = EDGE_CURVE ( 'NONE', #316, #81, #326, .T. ) ;
#305 = APPROVAL_ROLE ( '' ) ;
#306 = CLOSED_SHELL ( 'NONE', ( #288, #317, #321, #294, #260, #71 ) ) ;
#307 = PRODUCT_RELATED_PRODUCT_CATEGORY ( 'detail', '', ( #117 ) ) ;
#308 = CARTESIAN_POINT ( 'NONE',  ( 5.559418142238265280E-15, -1.949981389638383283E-16, 1.592280640423047844 ) ) ;
#309 = ORIENTED_EDGE ( 'NONE', *, *, #120, .T. ) ;
#310 = PLANE ( 'NONE',  #115 ) ;
#311 = CARTESIAN_POINT ( 'NONE',  ( 6.982962677686266711E-14, 2.649999999999992806, 20.00000000000000000 ) ) ;
#312 = DIRECTION ( 'NONE',  ( 0.0000000000000000000, 1.000000000000000000, 0.0000000000000000000 ) ) ;
#313 = VERTEX_POINT ( 'NONE', #206 ) ;
#314 = CYLINDRICAL_SURFACE ( 'NONE', #184, 2.649999999999994138 ) ;
#315 = EDGE_LOOP ( 'NONE', ( #236, #63, #75, #155 ) ) ;
#316 = VERTEX_POINT ( 'NONE', #333 ) ;
#317 = ADVANCED_FACE ( 'NONE', ( #150 ), #77, .T. ) ;
#318 = CARTESIAN_POINT ( 'NONE',  ( 2.164718430082742680E-13, 1.537253777228392827E-32, 62.00000000000000000 ) ) ;
#319 = CARTESIAN_POINT ( 'NONE',  ( 2.164718430082742680E-13, -7.592810154713590230E-15, 62.00000000000000000 ) ) ;
#320 = DIRECTION ( 'NONE',  ( -3.491481338843133355E-15, 1.224646799147353207E-16, -1.000000000000000000 ) ) ;
#321 = ADVANCED_FACE ( 'NONE', ( #214 ), #335, .F. ) ;
#322 = DIRECTION ( 'NONE',  ( -4.275831445896958607E-31, -1.000000000000000000, -1.224646799147353207E-16 ) ) ;
#323 = DIRECTION ( 'NONE',  ( -3.491481338843133355E-15, 1.224646799147353207E-16, -1.000000000000000000 ) ) ;
#324 = CONICAL_SURFACE ( 'NONE', #162, 2.649999999999992806, 1.029744258676649649 ) ;
#325 = CIRCLE ( 'NONE', #299, 2.649999999999995026 ) ;
#326 = CIRCLE ( 'NONE', #42, 2.649999999999999911 ) ;
#327 = PERSON_AND_ORGANIZATION_ROLE ( 'creator' ) ;
#328 = ORIENTED_EDGE ( 'NONE', *, *, #120, .F. ) ;
#329 = ADVANCED_FACE ( 'NONE', ( #189 ), #314, .T. ) ;
#330 = COORDINATED_UNIVERSAL_TIME_OFFSET ( 1, 0, .AHEAD. ) ;
#331 = CARTESIAN_POINT ( 'NONE',  ( 0.0000000000000000000, 0.0000000000000000000, 0.0000000000000000000 ) ) ;
#332 = ORGANIZATION ( 'UNSPECIFIED', 'UNSPECIFIED', '' ) ;
#333 = CARTESIAN_POINT ( 'NONE',  ( 2.143769542049683754E-13, 2.649999999999992806, 61.39999999999999858 ) ) ;
#334 = PERSON_AND_ORGANIZATION_ROLE ( 'design_supplier' ) ;
#335 = PLANE ( 'NONE',  #169 ) ;
#336 = ORIENTED_EDGE ( 'NONE', *, *, #178, .T. ) ;
#337 = PERSON_AND_ORGANIZATION_ROLE ( 'creator' ) ;
ENDSEC;
END-ISO-10303-21;
