ISO-10303-21;
HEADER;
FILE_DESCRIPTION (( 'STEP AP203' ),
    '1' );
FILE_NAME ('29760.step',
    '2021-09-03T07:21:52',
    ( '' ),
    ( '' ),
    'SwSTEP 2.0',
    'SolidWorks 2019',
    '' );
FILE_SCHEMA (( 'CONFIG_CONTROL_DESIGN' ));
ENDSEC;

DATA;
#1 = ORIENTED_EDGE ( 'NONE', *, *, #147, .F. ) ;
#2 = DIRECTION ( 'NONE',  ( 3.491481338843133355E-15, -1.224646799147353207E-16, 1.000000000000000000 ) ) ;
#3 = CIRCLE ( 'NONE', #104, 2.599999999999995204 ) ;
#4 = VERTEX_POINT ( 'NONE', #236 ) ;
#5 =( NAMED_UNIT ( * ) SI_UNIT ( $, .STERADIAN. ) SOLID_ANGLE_UNIT ( ) );
#6 = PRODUCT_DEFINITION ( 'UNKNOWN', '', #307, #219 ) ;
#7 = VERTEX_POINT ( 'NONE', #267 ) ;
#8 = PLANE ( 'NONE',  #195 ) ;
#9 = VECTOR ( 'NONE', #329, 1000.000000000000000 ) ;
#10 = APPROVAL_ROLE ( '' ) ;
#11 = ORIENTED_EDGE ( 'NONE', *, *, #316, .T. ) ;
#12 = CALENDAR_DATE ( 2021, 3, 9 ) ;
#13 = VERTEX_POINT ( 'NONE', #310 ) ;
#14 = ORIENTED_EDGE ( 'NONE', *, *, #224, .F. ) ;
#15 = CIRCLE ( 'NONE', #207, 2.599999999999992539 ) ;
#16 = DATE_AND_TIME ( #39, #100 ) ;
#17 = APPLICATION_PROTOCOL_DEFINITION ( 'international standard', 'config_control_design', 1994, #233 ) ;
#18 = AXIS2_PLACEMENT_3D ( 'NONE', #285, #226, #81 ) ;
#19 = EDGE_CURVE ( 'NONE', #4, #312, #306, .T. ) ;
#20 = CARTESIAN_POINT ( 'NONE',  ( 1.111716175933208117E-30, 2.599999999999997424, 3.184081677783115233E-16 ) ) ;
#21 = CARTESIAN_POINT ( 'NONE',  ( 0.0000000000000000000, 0.0000000000000000000, 0.0000000000000000000 ) ) ;
#22 = DIRECTION ( 'NONE',  ( 2.962969145211140604E-31, 1.000000000000000000, 8.340016711426981173E-17 ) ) ;
#23 = AXIS2_PLACEMENT_3D ( 'NONE', #330, #116, #137 ) ;
#24 = FACE_OUTER_BOUND ( 'NONE', #241, .T. ) ;
#25 = CARTESIAN_POINT ( 'NONE',  ( 1.111716175933206540E-30, 2.599999999999993872, 3.184081677783110795E-16 ) ) ;
#26 = DIRECTION ( 'NONE',  ( 0.0000000000000000000, 1.000000000000000000, 0.0000000000000000000 ) ) ;
#27 = COORDINATED_UNIVERSAL_TIME_OFFSET ( 1, 0, .AHEAD. ) ;
#28 = CONICAL_SURFACE ( 'NONE', #279, 2.000000000000000444, 0.7853981633974450594 ) ;
#29 = ADVANCED_FACE ( 'NONE', ( #152 ), #78, .T. ) ;
#30 = ORIENTED_EDGE ( 'NONE', *, *, #252, .T. ) ;
#31 = ORIENTED_EDGE ( 'NONE', *, *, #91, .T. ) ;
#32 = CONICAL_SURFACE ( 'NONE', #113, 2.599999999999992539, 1.029744258676649649 ) ;
#33 = ORIENTED_EDGE ( 'NONE', *, *, #205, .T. ) ;
#34 = PERSON_AND_ORGANIZATION ( #326, #180 ) ;
#35 = EDGE_LOOP ( 'NONE', ( #109, #318, #33, #296 ) ) ;
#36 = ORIENTED_EDGE ( 'NONE', *, *, #112, .F. ) ;
#37 = CARTESIAN_POINT ( 'NONE',  ( 2.164718430082742680E-13, -7.592810154713590230E-15, 62.00000000000000000 ) ) ;
#38 = CARTESIAN_POINT ( 'NONE',  ( 0.0000000000000000000, 0.0000000000000000000, 0.0000000000000000000 ) ) ;
#39 = CALENDAR_DATE ( 2021, 3, 9 ) ;
#40 = CLOSED_SHELL ( 'NONE', ( #287, #178, #245, #29, #134, #119 ) ) ;
#41 = ORIENTED_EDGE ( 'NONE', *, *, #252, .F. ) ;
#42 = PRODUCT ( '29760', '29760', '', ( #302 ) ) ;
#43 = CARTESIAN_POINT ( 'NONE',  ( 3.796048328636423129E-14, -2.599999999999998312, 20.00000000000000000 ) ) ;
#44 = CARTESIAN_POINT ( 'NONE',  ( 0.0000000000000000000, 0.0000000000000000000, 0.0000000000000000000 ) ) ;
#45 = DIRECTION ( 'NONE',  ( -3.491481338843133355E-15, 1.224646799147353207E-16, -1.000000000000000000 ) ) ;
#46 = APPROVAL_ROLE ( '' ) ;
#47 = EDGE_CURVE ( 'NONE', #213, #7, #206, .T. ) ;
#48 = CIRCLE ( 'NONE', #124, 2.600000000000000089 ) ;
#49 = CALENDAR_DATE ( 2021, 3, 9 ) ;
#50 = LINE ( 'NONE', #309, #168 ) ;
#51 = APPROVAL ( #237, 'UNSPECIFIED' ) ;
#52 = CIRCLE ( 'NONE', #171, 2.599999999999995204 ) ;
#53 = DATE_AND_TIME ( #49, #230 ) ;
#54 = ORIENTED_EDGE ( 'NONE', *, *, #147, .T. ) ;
#55 = EDGE_LOOP ( 'NONE', ( #192, #269 ) ) ;
#56 = DIRECTION ( 'NONE',  ( 4.275831445896958607E-31, 1.000000000000000000, 1.224646799147353207E-16 ) ) ;
#57 = ORIENTED_EDGE ( 'NONE', *, *, #74, .T. ) ;
#58 = PRODUCT_RELATED_PRODUCT_CATEGORY ( 'detail', '', ( #42 ) ) ;
#59 = AXIS2_PLACEMENT_3D ( 'NONE', #231, #261, #56 ) ;
#60 = CC_DESIGN_APPROVAL ( #51, ( #284 ) ) ;
#61 = ORIENTED_EDGE ( 'NONE', *, *, #167, .T. ) ;
#62 = DIRECTION ( 'NONE',  ( -3.491481338843133355E-15, 1.224646799147353207E-16, -1.000000000000000000 ) ) ;
#63 = DIRECTION ( 'NONE',  ( -3.491481338843133355E-15, 1.224646799147353207E-16, -1.000000000000000000 ) ) ;
#64 = EDGE_CURVE ( 'NONE', #13, #244, #96, .T. ) ;
#65 = AXIS2_PLACEMENT_3D ( 'NONE', #70, #172, #75 ) ;
#66 = FACE_OUTER_BOUND ( 'NONE', #210, .T. ) ;
#67 = DIRECTION ( 'NONE',  ( -4.275831445896958607E-31, -1.000000000000000000, -1.224646799147353207E-16 ) ) ;
#68 = DIRECTION ( 'NONE',  ( 0.0000000000000000000, 1.000000000000000000, 0.0000000000000000000 ) ) ;
#69 = EDGE_CURVE ( 'NONE', #160, #4, #50, .T. ) ;
#70 = CARTESIAN_POINT ( 'NONE',  ( 2.164718430082742680E-13, 1.499759782661846387E-32, 62.00000000000000000 ) ) ;
#71 = DIRECTION ( 'NONE',  ( 0.0000000000000000000, 1.000000000000000000, 0.0000000000000000000 ) ) ;
#72 = CALENDAR_DATE ( 2021, 3, 9 ) ;
#73 = VECTOR ( 'NONE', #115, 999.9999999999998863 ) ;
#74 = EDGE_CURVE ( 'NONE', #312, #13, #300, .T. ) ;
#75 = DIRECTION ( 'NONE',  ( 4.275831445896958607E-31, 1.000000000000000000, 1.224646799147353207E-16 ) ) ;
#76 = COORDINATED_UNIVERSAL_TIME_OFFSET ( 1, 0, .AHEAD. ) ;
#77 = AXIS2_PLACEMENT_3D ( 'NONE', #251, #123, #98 ) ;
#78 = CYLINDRICAL_SURFACE ( 'NONE', #59, 2.599999999999997424 ) ;
#79 = AXIS2_PLACEMENT_3D ( 'NONE', #37, #303, #130 ) ;
#80 = APPROVAL_PERSON_ORGANIZATION ( #179, #198, #286 ) ;
#81 = DIRECTION ( 'NONE',  ( 0.0000000000000000000, 1.000000000000000000, 0.0000000000000000000 ) ) ;
#82 = ORIENTED_EDGE ( 'NONE', *, *, #19, .F. ) ;
#83 = ORIENTED_EDGE ( 'NONE', *, *, #91, .F. ) ;
#84 = ORIENTED_EDGE ( 'NONE', *, *, #69, .F. ) ;
#85 = CARTESIAN_POINT ( 'NONE',  ( 6.982962677686266711E-14, -2.449293598294706513E-15, 20.00000000000000000 ) ) ;
#86 = DIRECTION ( 'NONE',  ( 4.275831445896958607E-31, 1.000000000000000000, 1.224646799147353207E-16 ) ) ;
#87 = SHAPE_DEFINITION_REPRESENTATION ( #107, #274 ) ;
#88 = EDGE_LOOP ( 'NONE', ( #317, #103, #54, #14 ) ) ;
#89 = CARTESIAN_POINT ( 'NONE',  ( 3.184081677783104386E-16, -2.599999999999997424, -3.184081677783125586E-16 ) ) ;
#90 = AXIS2_PLACEMENT_3D ( 'NONE', #193, #164, #86 ) ;
#91 = EDGE_CURVE ( 'NONE', #276, #312, #162, .T. ) ;
#92 = DIRECTION ( 'NONE',  ( -4.275831445896958607E-31, -1.000000000000000000, -1.224646799147353207E-16 ) ) ;
#93 = DIRECTION ( 'NONE',  ( 0.0000000000000000000, 1.000000000000000000, 0.0000000000000000000 ) ) ;
#94 = LOCAL_TIME ( 9, 21, 52.00000000000000000, #203 ) ;
#95 = CYLINDRICAL_SURFACE ( 'NONE', #23, 2.599999999999993872 ) ;
#96 = CIRCLE ( 'NONE', #311, 2.599999999999995204 ) ;
#97 = CARTESIAN_POINT ( 'NONE',  ( 2.164718430082742680E-13, -7.592810154713590230E-15, 62.00000000000000000 ) ) ;
#98 = DIRECTION ( 'NONE',  ( -2.962969145211140604E-31, -1.000000000000000000, -8.340016711426981173E-17 ) ) ;
#99 = APPROVAL ( #170, 'UNSPECIFIED' ) ;
#100 = LOCAL_TIME ( 9, 21, 52.00000000000000000, #27 ) ;
#101 = PERSON_AND_ORGANIZATION_ROLE ( 'creator' ) ;
#102 =( NAMED_UNIT ( * ) PLANE_ANGLE_UNIT ( ) SI_UNIT ( $, .RADIAN. ) );
#103 = ORIENTED_EDGE ( 'NONE', *, *, #139, .T. ) ;
#104 = AXIS2_PLACEMENT_3D ( 'NONE', #122, #335, #93 ) ;
#105 = CC_DESIGN_APPROVAL ( #99, ( #6 ) ) ;
#106 = EDGE_CURVE ( 'NONE', #276, #160, #253, .T. ) ;
#107 = PRODUCT_DEFINITION_SHAPE ( 'NONE', 'NONE',  #6 ) ;
#108 = COORDINATED_UNIVERSAL_TIME_OFFSET ( 1, 0, .AHEAD. ) ;
#109 = ORIENTED_EDGE ( 'NONE', *, *, #74, .F. ) ;
#110 = APPROVAL_DATE_TIME ( #209, #51 ) ;
#111 = EDGE_LOOP ( 'NONE', ( #131, #187 ) ) ;
#112 = EDGE_CURVE ( 'NONE', #312, #4, #48, .T. ) ;
#113 = AXIS2_PLACEMENT_3D ( 'NONE', #333, #2, #126 ) ;
#114 = ORIENTED_EDGE ( 'NONE', *, *, #205, .F. ) ;
#115 = DIRECTION ( 'NONE',  ( 1.903218546456022717E-15, 0.8571673007021097801, 0.5150380749100585964 ) ) ;
#116 = DIRECTION ( 'NONE',  ( -3.491481338843133355E-15, 1.224646799147353207E-16, -1.000000000000000000 ) ) ;
#117 = CC_DESIGN_PERSON_AND_ORGANIZATION_ASSIGNMENT ( #227, #332, ( #307 ) ) ;
#118 = CLOSED_SHELL ( 'NONE', ( #273, #165, #334, #194, #174 ) ) ;
#119 = ADVANCED_FACE ( 'NONE', ( #66 ), #280, .F. ) ;
#120 = LOCAL_TIME ( 9, 21, 52.00000000000000000, #144 ) ;
#121 = FACE_OUTER_BOUND ( 'NONE', #154, .T. ) ;
#122 = CARTESIAN_POINT ( 'NONE',  ( 6.982962677686266711E-14, -2.449293598294706513E-15, 20.00000000000000000 ) ) ;
#123 = DIRECTION ( 'NONE',  ( 3.491481338843133355E-15, -1.224646799147353207E-16, 1.000000000000000000 ) ) ;
#124 = AXIS2_PLACEMENT_3D ( 'NONE', #243, #63, #166 ) ;
#125 = DATE_AND_TIME ( #72, #120 ) ;
#126 = DIRECTION ( 'NONE',  ( -2.962969145211140604E-31, -1.000000000000000000, -8.340016711426981173E-17 ) ) ;
#127 = EDGE_CURVE ( 'NONE', #244, #13, #319, .T. ) ;
#128 = EDGE_LOOP ( 'NONE', ( #83, #156, #208, #36 ) ) ;
#129 = FACE_OUTER_BOUND ( 'NONE', #150, .T. ) ;
#130 = DIRECTION ( 'NONE',  ( 0.0000000000000000000, 1.000000000000000000, 0.0000000000000000000 ) ) ;
#131 = ORIENTED_EDGE ( 'NONE', *, *, #127, .T. ) ;
#132 = PERSON_AND_ORGANIZATION_ROLE ( 'design_owner' ) ;
#133 = CARTESIAN_POINT ( 'NONE',  ( 6.982962677686266711E-14, 2.599999999999992539, 20.00000000000000000 ) ) ;
#134 = ADVANCED_FACE ( 'NONE', ( #232 ), #202, .T. ) ;
#135 = EDGE_LOOP ( 'NONE', ( #182, #31, #82, #84 ) ) ;
#136 = FACE_OUTER_BOUND ( 'NONE', #111, .T. ) ;
#137 = DIRECTION ( 'NONE',  ( 4.275831445896958607E-31, 1.000000000000000000, 1.224646799147353207E-16 ) ) ;
#138 = AXIS2_PLACEMENT_3D ( 'NONE', #262, #292, #26 ) ;
#139 = EDGE_CURVE ( 'NONE', #213, #161, #3, .T. ) ;
#140 = DIRECTION ( 'NONE',  ( -3.491481338843133355E-15, 1.224646799147353207E-16, -1.000000000000000000 ) ) ;
#141 = CARTESIAN_POINT ( 'NONE',  ( 6.982962677686266711E-14, 2.599999999999992539, 20.00000000000000000 ) ) ;
#142 = CARTESIAN_POINT ( 'NONE',  ( 5.772931628087553676E-15, 2.599999999999992539, 1.562237609471669675 ) ) ;
#143 = VECTOR ( 'NONE', #62, 1000.000000000000000 ) ;
#144 = COORDINATED_UNIVERSAL_TIME_OFFSET ( 1, 0, .AHEAD. ) ;
#145 = PERSON_AND_ORGANIZATION ( #326, #180 ) ;
#146 = UNCERTAINTY_MEASURE_WITH_UNIT (LENGTH_MEASURE( 1.000000000000000082E-05 ), #235, 'distance_accuracy_value', 'NONE');
#147 = EDGE_CURVE ( 'NONE', #161, #313, #255, .T. ) ;
#148 = PERSON_AND_ORGANIZATION ( #326, #180 ) ;
#149 = DIRECTION ( 'NONE',  ( -3.491481338843133355E-15, 1.224646799147353207E-16, -1.000000000000000000 ) ) ;
#150 = EDGE_LOOP ( 'NONE', ( #11, #239, #294, #1 ) ) ;
#151 = CIRCLE ( 'NONE', #268, 2.000000000000000444 ) ;
#152 = FACE_OUTER_BOUND ( 'NONE', #35, .T. ) ;
#153 = PERSON_AND_ORGANIZATION ( #326, #180 ) ;
#154 = EDGE_LOOP ( 'NONE', ( #271, #57, #188, #114 ) ) ;
#155 = DIRECTION ( 'NONE',  ( 1.798245827342160317E-15, -0.8571673007021098911, 0.5150380749100582634 ) ) ;
#156 = ORIENTED_EDGE ( 'NONE', *, *, #106, .T. ) ;
#157 = MANIFOLD_SOLID_BREP ( 'Corps-Déplacer/Copier1[2]', #118 ) ;
#158 = CARTESIAN_POINT ( 'NONE',  ( 5.772931628087552887E-15, 2.599999999999992539, 1.562237609471669675 ) ) ;
#159 = MANIFOLD_SOLID_BREP ( 'Corps-Déplacer/Copier1[1]', #40 ) ;
#160 = VERTEX_POINT ( 'NONE', #282 ) ;
#161 = VERTEX_POINT ( 'NONE', #141 ) ;
#162 = LINE ( 'NONE', #272, #222 ) ;
#163 = DIRECTION ( 'NONE',  ( 2.962969145211140604E-31, 1.000000000000000000, 8.340016711426981173E-17 ) ) ;
#164 = DIRECTION ( 'NONE',  ( -3.491481338843133355E-15, 1.224646799147353207E-16, -1.000000000000000000 ) ) ;
#165 = ADVANCED_FACE ( 'NONE', ( #204 ), #322, .T. ) ;
#166 = DIRECTION ( 'NONE',  ( 0.0000000000000000000, 1.000000000000000000, 0.0000000000000000000 ) ) ;
#167 = EDGE_CURVE ( 'NONE', #313, #7, #15, .T. ) ;
#168 = VECTOR ( 'NONE', #189, 1000.000000000000000 ) ;
#169 = DIRECTION ( 'NONE',  ( 0.0000000000000000000, 1.000000000000000000, 0.0000000000000000000 ) ) ;
#170 = APPROVAL_STATUS ( 'not_yet_approved' ) ;
#171 = AXIS2_PLACEMENT_3D ( 'NONE', #305, #254, #68 ) ;
#172 = DIRECTION ( 'NONE',  ( -3.491481338843133355E-15, 1.224646799147353207E-16, -1.000000000000000000 ) ) ;
#173 = CARTESIAN_POINT ( 'NONE',  ( 5.454523460309240871E-15, -1.913189287947092749E-16, 1.562237609471669453 ) ) ;
#174 = ADVANCED_FACE ( 'NONE', ( #228 ), #337, .T. ) ;
#175 = APPROVAL_STATUS ( 'not_yet_approved' ) ;
#176 = CARTESIAN_POINT ( 'NONE',  ( 6.982962677686266711E-14, 1.949687717460407501E-32, 20.00000000000000000 ) ) ;
#177 = CARTESIAN_POINT ( 'NONE',  ( 5.454523460309240871E-15, -1.913189287947092749E-16, 1.562237609471669453 ) ) ;
#178 = ADVANCED_FACE ( 'NONE', ( #121 ), #223, .T. ) ;
#179 = PERSON_AND_ORGANIZATION ( #326, #180 ) ;
#180 = ORGANIZATION ( 'UNSPECIFIED', 'UNSPECIFIED', '' ) ;
#181 = DIRECTION ( 'NONE',  ( -3.491481338843133355E-15, 1.224646799147353207E-16, -1.000000000000000000 ) ) ;
#182 = ORIENTED_EDGE ( 'NONE', *, *, #304, .T. ) ;
#183 = ORIENTED_EDGE ( 'NONE', *, *, #258, .T. ) ;
#184 = LINE ( 'NONE', #242, #220 ) ;
#185 = VERTEX_POINT ( 'NONE', #21 ) ;
#186 = DIRECTION ( 'NONE',  ( 1.000000000000000000, 0.0000000000000000000, 0.0000000000000000000 ) ) ;
#187 = ORIENTED_EDGE ( 'NONE', *, *, #64, .T. ) ;
#188 = ORIENTED_EDGE ( 'NONE', *, *, #127, .F. ) ;
#189 = DIRECTION ( 'NONE',  ( -2.468850131082272838E-15, 0.7071067811865453523, -0.7071067811865496822 ) ) ;
#190 = ORIENTED_EDGE ( 'NONE', *, *, #106, .F. ) ;
#191 = LINE ( 'NONE', #158, #73 ) ;
#192 = ORIENTED_EDGE ( 'NONE', *, *, #316, .F. ) ;
#193 = CARTESIAN_POINT ( 'NONE',  ( 0.0000000000000000000, 0.0000000000000000000, 0.0000000000000000000 ) ) ;
#194 = ADVANCED_FACE ( 'NONE', ( #327 ), #95, .T. ) ;
#195 = AXIS2_PLACEMENT_3D ( 'NONE', #315, #240, #92 ) ;
#196 = DIRECTION ( 'NONE',  ( -3.491481338843133355E-15, 1.224646799147353207E-16, -1.000000000000000000 ) ) ;
#197 = LINE ( 'NONE', #20, #9 ) ;
#198 = APPROVAL ( #175, 'UNSPECIFIED' ) ;
#199 = VECTOR ( 'NONE', #283, 1000.000000000000000 ) ;
#200 = APPLICATION_CONTEXT ( 'configuration controlled 3d designs of mechanical parts and assemblies' ) ;
#201 = PERSON_AND_ORGANIZATION ( #326, #180 ) ;
#202 = CONICAL_SURFACE ( 'NONE', #138, 2.000000000000000444, 0.7853981633974450594 ) ;
#203 = COORDINATED_UNIVERSAL_TIME_OFFSET ( 1, 0, .AHEAD. ) ;
#204 = FACE_OUTER_BOUND ( 'NONE', #257, .T. ) ;
#205 = EDGE_CURVE ( 'NONE', #4, #244, #197, .T. ) ;
#206 = LINE ( 'NONE', #212, #297 ) ;
#207 = AXIS2_PLACEMENT_3D ( 'NONE', #173, #149, #22 ) ;
#208 = ORIENTED_EDGE ( 'NONE', *, *, #69, .T. ) ;
#209 = DATE_AND_TIME ( #12, #299 ) ;
#210 = EDGE_LOOP ( 'NONE', ( #290, #190 ) ) ;
#211 = DIRECTION ( 'NONE',  ( 0.0000000000000000000, 0.0000000000000000000, 1.000000000000000000 ) ) ;
#212 = CARTESIAN_POINT ( 'NONE',  ( 3.184081677783099948E-16, -2.599999999999993872, -3.184081677783121642E-16 ) ) ;
#213 = VERTEX_POINT ( 'NONE', #43 ) ;
#214 = DIRECTION ( 'NONE',  ( -3.491481338843133355E-15, 1.224646799147353207E-16, -1.000000000000000000 ) ) ;
#215 = APPLICATION_PROTOCOL_DEFINITION ( 'international standard', 'config_control_design', 1994, #200 ) ;
#216 = AXIS2_PLACEMENT_3D ( 'NONE', #44, #140, #249 ) ;
#217 = CYLINDRICAL_SURFACE ( 'NONE', #90, 2.599999999999993872 ) ;
#218 = DATE_TIME_ROLE ( 'classification_date' ) ;
#219 = DESIGN_CONTEXT ( 'detailed design', #233, 'design' ) ;
#220 = VECTOR ( 'NONE', #155, 1000.000000000000000 ) ;
#221 = CC_DESIGN_SECURITY_CLASSIFICATION ( #284, ( #307 ) ) ;
#222 = VECTOR ( 'NONE', #264, 1000.000000000000114 ) ;
#223 = CYLINDRICAL_SURFACE ( 'NONE', #216, 2.599999999999997424 ) ;
#224 = EDGE_CURVE ( 'NONE', #7, #313, #275, .T. ) ;
#225 = APPROVAL_DATE_TIME ( #125, #99 ) ;
#226 = DIRECTION ( 'NONE',  ( -3.491481338843133355E-15, 1.224646799147353207E-16, -1.000000000000000000 ) ) ;
#227 = PERSON_AND_ORGANIZATION ( #326, #180 ) ;
#228 = FACE_OUTER_BOUND ( 'NONE', #55, .T. ) ;
#229 = AXIS2_PLACEMENT_3D ( 'NONE', #177, #331, #163 ) ;
#230 = LOCAL_TIME ( 9, 21, 52.00000000000000000, #76 ) ;
#231 = CARTESIAN_POINT ( 'NONE',  ( 0.0000000000000000000, 0.0000000000000000000, 0.0000000000000000000 ) ) ;
#232 = FACE_OUTER_BOUND ( 'NONE', #128, .T. ) ;
#233 = APPLICATION_CONTEXT ( 'configuration controlled 3d designs of mechanical parts and assemblies' ) ;
#234 = DATE_TIME_ROLE ( 'creation_date' ) ;
#235 =( LENGTH_UNIT ( ) NAMED_UNIT ( * ) SI_UNIT ( .MILLI., .METRE. ) );
#236 = CARTESIAN_POINT ( 'NONE',  ( 2.143769542049683754E-13, 2.599999999999992539, 61.39999999999999858 ) ) ;
#237 = APPROVAL_STATUS ( 'not_yet_approved' ) ;
#238 = AXIS2_PLACEMENT_3D ( 'NONE', #270, #181, #295 ) ;
#239 = ORIENTED_EDGE ( 'NONE', *, *, #47, .T. ) ;
#240 = DIRECTION ( 'NONE',  ( 3.491481338843133355E-15, -1.224646799147353207E-16, 1.000000000000000000 ) ) ;
#241 = EDGE_LOOP ( 'NONE', ( #41, #183, #265 ) ) ;
#242 = CARTESIAN_POINT ( 'NONE',  ( 5.454523460309240082E-15, -2.599999999999992539, 1.562237609471669231 ) ) ;
#243 = CARTESIAN_POINT ( 'NONE',  ( 2.143769542049683754E-13, -7.519331346764748510E-15, 61.39999999999999858 ) ) ;
#244 = VERTEX_POINT ( 'NONE', #133 ) ;
#245 = ADVANCED_FACE ( 'NONE', ( #136 ), #8, .F. ) ;
#246 = CC_DESIGN_PERSON_AND_ORGANIZATION_ASSIGNMENT ( #201, #101, ( #6 ) ) ;
#247 = CARTESIAN_POINT ( 'NONE',  ( 2.157060673704251797E-13, -2.000000000000008438, 62.00000000000000000 ) ) ;
#248 = AXIS2_PLACEMENT_3D ( 'NONE', #176, #260, #67 ) ;
#249 = DIRECTION ( 'NONE',  ( 4.275831445896958607E-31, 1.000000000000000000, 1.224646799147353207E-16 ) ) ;
#250 = CARTESIAN_POINT ( 'NONE',  ( 1.424216986586937039E-13, -2.600000000000007194, 61.39999999999999858 ) ) ;
#251 = CARTESIAN_POINT ( 'NONE',  ( 5.454523460309240871E-15, -1.913189287947092749E-16, 1.562237609471669453 ) ) ;
#252 = EDGE_CURVE ( 'NONE', #185, #313, #191, .T. ) ;
#253 = CIRCLE ( 'NONE', #79, 2.000000000000000444 ) ;
#254 = DIRECTION ( 'NONE',  ( -3.491481338843133355E-15, 1.224646799147353207E-16, -1.000000000000000000 ) ) ;
#255 = LINE ( 'NONE', #25, #199 ) ;
#256 = PERSON_AND_ORGANIZATION_ROLE ( 'design_supplier' ) ;
#257 = EDGE_LOOP ( 'NONE', ( #298, #30, #61 ) ) ;
#258 = EDGE_CURVE ( 'NONE', #185, #7, #184, .T. ) ;
#259 = PERSON_AND_ORGANIZATION_ROLE ( 'classification_officer' ) ;
#260 = DIRECTION ( 'NONE',  ( 3.491481338843133355E-15, -1.224646799147353207E-16, 1.000000000000000000 ) ) ;
#261 = DIRECTION ( 'NONE',  ( -3.491481338843133355E-15, 1.224646799147353207E-16, -1.000000000000000000 ) ) ;
#262 = CARTESIAN_POINT ( 'NONE',  ( 2.164718430082742680E-13, -7.592810154713590230E-15, 62.00000000000000000 ) ) ;
#263 = APPROVAL_DATE_TIME ( #53, #198 ) ;
#264 = DIRECTION ( 'NONE',  ( -2.382254525458724175E-15, -0.7071067811865451302, -0.7071067811865499042 ) ) ;
#265 = ORIENTED_EDGE ( 'NONE', *, *, #224, .T. ) ;
#266 = CC_DESIGN_PERSON_AND_ORGANIZATION_ASSIGNMENT ( #34, #132, ( #42 ) ) ;
#267 = CARTESIAN_POINT ( 'NONE',  ( 5.454523460309240082E-15, -2.599999999999992539, 1.562237609471669231 ) ) ;
#268 = AXIS2_PLACEMENT_3D ( 'NONE', #97, #196, #169 ) ;
#269 = ORIENTED_EDGE ( 'NONE', *, *, #139, .F. ) ;
#270 = CARTESIAN_POINT ( 'NONE',  ( 2.143769542049683754E-13, -7.519331346764748510E-15, 61.39999999999999858 ) ) ;
#271 = ORIENTED_EDGE ( 'NONE', *, *, #19, .T. ) ;
#272 = CARTESIAN_POINT ( 'NONE',  ( 2.167167723681037383E-13, -2.000000000000008438, 62.00000000000000000 ) ) ;
#273 = ADVANCED_FACE ( 'NONE', ( #129 ), #217, .T. ) ;
#274 = ADVANCED_BREP_SHAPE_REPRESENTATION ( '29760', ( #159, #157, #328 ), #291 ) ;
#275 = CIRCLE ( 'NONE', #229, 2.599999999999992539 ) ;
#276 = VERTEX_POINT ( 'NONE', #247 ) ;
#277 = APPROVAL_PERSON_ORGANIZATION ( #324, #99, #46 ) ;
#278 = CARTESIAN_POINT ( 'NONE',  ( 2.164718430082742680E-13, -7.592810154713590230E-15, 62.00000000000000000 ) ) ;
#279 = AXIS2_PLACEMENT_3D ( 'NONE', #278, #45, #71 ) ;
#280 = PLANE ( 'NONE',  #65 ) ;
#281 = CC_DESIGN_PERSON_AND_ORGANIZATION_ASSIGNMENT ( #145, #256, ( #307 ) ) ;
#282 = CARTESIAN_POINT ( 'NONE',  ( 2.164718430082742680E-13, 1.999999999999992673, 62.00000000000000000 ) ) ;
#283 = DIRECTION ( 'NONE',  ( -3.491481338843133355E-15, 1.224646799147353207E-16, -1.000000000000000000 ) ) ;
#284 = SECURITY_CLASSIFICATION ( '', '', #336 ) ;
#285 = CARTESIAN_POINT ( 'NONE',  ( 6.982962677686266711E-14, -2.449293598294706513E-15, 20.00000000000000000 ) ) ;
#286 = APPROVAL_ROLE ( '' ) ;
#287 = ADVANCED_FACE ( 'NONE', ( #325 ), #28, .T. ) ;
#288 = CALENDAR_DATE ( 2021, 3, 9 ) ;
#289 = DIRECTION ( 'NONE',  ( 0.0000000000000000000, 1.000000000000000000, 0.0000000000000000000 ) ) ;
#290 = ORIENTED_EDGE ( 'NONE', *, *, #304, .F. ) ;
#291 =( GEOMETRIC_REPRESENTATION_CONTEXT ( 3 ) GLOBAL_UNCERTAINTY_ASSIGNED_CONTEXT ( ( #146 ) ) GLOBAL_UNIT_ASSIGNED_CONTEXT ( ( #235, #102, #5 ) ) REPRESENTATION_CONTEXT ( 'NONE', 'WORKASPACE' ) );
#292 = DIRECTION ( 'NONE',  ( -3.491481338843133355E-15, 1.224646799147353207E-16, -1.000000000000000000 ) ) ;
#293 = CC_DESIGN_PERSON_AND_ORGANIZATION_ASSIGNMENT ( #148, #259, ( #284 ) ) ;
#294 = ORIENTED_EDGE ( 'NONE', *, *, #167, .F. ) ;
#295 = DIRECTION ( 'NONE',  ( 0.0000000000000000000, 1.000000000000000000, 0.0000000000000000000 ) ) ;
#296 = ORIENTED_EDGE ( 'NONE', *, *, #64, .F. ) ;
#297 = VECTOR ( 'NONE', #314, 1000.000000000000000 ) ;
#298 = ORIENTED_EDGE ( 'NONE', *, *, #258, .F. ) ;
#299 = LOCAL_TIME ( 9, 21, 52.00000000000000000, #108 ) ;
#300 = LINE ( 'NONE', #89, #143 ) ;
#301 = CC_DESIGN_DATE_AND_TIME_ASSIGNMENT ( #308, #234, ( #6 ) ) ;
#302 = MECHANICAL_CONTEXT ( 'NONE', #200, 'mechanical' ) ;
#303 = DIRECTION ( 'NONE',  ( -3.491481338843133355E-15, 1.224646799147353207E-16, -1.000000000000000000 ) ) ;
#304 = EDGE_CURVE ( 'NONE', #160, #276, #151, .T. ) ;
#305 = CARTESIAN_POINT ( 'NONE',  ( 6.982962677686266711E-14, -2.449293598294706513E-15, 20.00000000000000000 ) ) ;
#306 = CIRCLE ( 'NONE', #238, 2.600000000000000089 ) ;
#307 = PRODUCT_DEFINITION_FORMATION_WITH_SPECIFIED_SOURCE ( 'ANY', '', #42, .NOT_KNOWN. ) ;
#308 = DATE_AND_TIME ( #288, #94 ) ;
#309 = CARTESIAN_POINT ( 'NONE',  ( 2.164718430082742680E-13, 1.999999999999992673, 62.00000000000000000 ) ) ;
#310 = CARTESIAN_POINT ( 'NONE',  ( 1.424216986586937796E-13, -2.599999999999997868, 20.00000000000000000 ) ) ;
#311 = AXIS2_PLACEMENT_3D ( 'NONE', #85, #214, #289 ) ;
#312 = VERTEX_POINT ( 'NONE', #250 ) ;
#313 = VERTEX_POINT ( 'NONE', #142 ) ;
#314 = DIRECTION ( 'NONE',  ( -3.491481338843133355E-15, 1.224646799147353207E-16, -1.000000000000000000 ) ) ;
#315 = CARTESIAN_POINT ( 'NONE',  ( 6.982962677686266711E-14, 1.949687717460407501E-32, 20.00000000000000000 ) ) ;
#316 = EDGE_CURVE ( 'NONE', #161, #213, #52, .T. ) ;
#317 = ORIENTED_EDGE ( 'NONE', *, *, #47, .F. ) ;
#318 = ORIENTED_EDGE ( 'NONE', *, *, #112, .T. ) ;
#319 = CIRCLE ( 'NONE', #18, 2.599999999999995204 ) ;
#320 = CC_DESIGN_APPROVAL ( #198, ( #307 ) ) ;
#321 = CC_DESIGN_DATE_AND_TIME_ASSIGNMENT ( #16, #218, ( #284 ) ) ;
#322 = CONICAL_SURFACE ( 'NONE', #77, 2.599999999999992539, 1.029744258676649649 ) ;
#323 = APPROVAL_PERSON_ORGANIZATION ( #153, #51, #10 ) ;
#324 = PERSON_AND_ORGANIZATION ( #326, #180 ) ;
#325 = FACE_OUTER_BOUND ( 'NONE', #135, .T. ) ;
#326 = PERSON ( 'UNSPECIFIED', 'UNSPECIFIED', 'UNSPECIFIED', ('UNSPECIFIED'), ('UNSPECIFIED'), ('UNSPECIFIED') ) ;
#327 = FACE_OUTER_BOUND ( 'NONE', #88, .T. ) ;
#328 = AXIS2_PLACEMENT_3D ( 'NONE', #38, #211, #186 ) ;
#329 = DIRECTION ( 'NONE',  ( -3.491481338843133355E-15, 1.224646799147353207E-16, -1.000000000000000000 ) ) ;
#330 = CARTESIAN_POINT ( 'NONE',  ( 0.0000000000000000000, 0.0000000000000000000, 0.0000000000000000000 ) ) ;
#331 = DIRECTION ( 'NONE',  ( -3.491481338843133355E-15, 1.224646799147353207E-16, -1.000000000000000000 ) ) ;
#332 = PERSON_AND_ORGANIZATION_ROLE ( 'creator' ) ;
#333 = CARTESIAN_POINT ( 'NONE',  ( 5.454523460309240871E-15, -1.913189287947092749E-16, 1.562237609471669453 ) ) ;
#334 = ADVANCED_FACE ( 'NONE', ( #24 ), #32, .T. ) ;
#335 = DIRECTION ( 'NONE',  ( -3.491481338843133355E-15, 1.224646799147353207E-16, -1.000000000000000000 ) ) ;
#336 = SECURITY_CLASSIFICATION_LEVEL ( 'unclassified' ) ;
#337 = PLANE ( 'NONE',  #248 ) ;
ENDSEC;
END-ISO-10303-21;
