ISO-10303-21;
HEADER;
FILE_DESCRIPTION (( 'STEP AP203' ),
    '1' );
FILE_NAME ('29759.step',
    '2021-09-03T07:21:51',
    ( '' ),
    ( '' ),
    'SwSTEP 2.0',
    'SolidWorks 2019',
    '' );
FILE_SCHEMA (( 'CONFIG_CONTROL_DESIGN' ));
ENDSEC;

DATA;
#1 = ORIENTED_EDGE ( 'NONE', *, *, #298, .F. ) ;
#2 = APPROVAL_STATUS ( 'not_yet_approved' ) ;
#3 = CLOSED_SHELL ( 'NONE', ( #175, #264, #306, #144, #137, #52 ) ) ;
#4 = VECTOR ( 'NONE', #22, 1000.000000000000000 ) ;
#5 = DIRECTION ( 'NONE',  ( -3.491481338843133355E-15, 1.224646799147353207E-16, -1.000000000000000000 ) ) ;
#6 = DATE_AND_TIME ( #180, #199 ) ;
#7 = ADVANCED_FACE ( 'NONE', ( #275 ), #139, .T. ) ;
#8 = APPROVAL_DATE_TIME ( #6, #289 ) ;
#9 = DIRECTION ( 'NONE',  ( -3.491481338843133355E-15, 1.224646799147353207E-16, -1.000000000000000000 ) ) ;
#10 = ORGANIZATION ( 'UNSPECIFIED', 'UNSPECIFIED', '' ) ;
#11 = DIRECTION ( 'NONE',  ( 3.021066579430967174E-31, 1.000000000000000000, 8.503546450866726699E-17 ) ) ;
#12 = ORIENTED_EDGE ( 'NONE', *, *, #329, .F. ) ;
#13 = FACE_OUTER_BOUND ( 'NONE', #317, .T. ) ;
#14 = LINE ( 'NONE', #44, #4 ) ;
#15 = ORIENTED_EDGE ( 'NONE', *, *, #325, .F. ) ;
#16 = ORIENTED_EDGE ( 'NONE', *, *, #95, .T. ) ;
#17 = PERSON_AND_ORGANIZATION_ROLE ( 'design_supplier' ) ;
#18 = DIRECTION ( 'NONE',  ( 0.0000000000000000000, 1.000000000000000000, 0.0000000000000000000 ) ) ;
#19 = AXIS2_PLACEMENT_3D ( 'NONE', #181, #203, #90 ) ;
#20 = APPROVAL_STATUS ( 'not_yet_approved' ) ;
#21 = AXIS2_PLACEMENT_3D ( 'NONE', #246, #193, #61 ) ;
#22 = DIRECTION ( 'NONE',  ( 1.798245827342160317E-15, -0.8571673007021098911, 0.5150380749100582634 ) ) ;
#23 = LINE ( 'NONE', #135, #230 ) ;
#24 = CARTESIAN_POINT ( 'NONE',  ( 6.982962677686266711E-14, 1.912193722893861060E-32, 20.00000000000000000 ) ) ;
#25 = CARTESIAN_POINT ( 'NONE',  ( 2.164718430082742680E-13, 1.949999999999992628, 62.00000000000000000 ) ) ;
#26 = EDGE_CURVE ( 'NONE', #202, #296, #145, .T. ) ;
#27 = ADVANCED_BREP_SHAPE_REPRESENTATION ( '29759', ( #281, #168, #303 ), #295 ) ;
#28 = DIRECTION ( 'NONE',  ( -3.491481338843133355E-15, 1.224646799147353207E-16, -1.000000000000000000 ) ) ;
#29 = CC_DESIGN_SECURITY_CLASSIFICATION ( #174, ( #232 ) ) ;
#30 = DIRECTION ( 'NONE',  ( -4.275831445896958607E-31, -1.000000000000000000, -1.224646799147353207E-16 ) ) ;
#31 = APPROVAL_STATUS ( 'not_yet_approved' ) ;
#32 = ORIENTED_EDGE ( 'NONE', *, *, #233, .T. ) ;
#33 =( NAMED_UNIT ( * ) SI_UNIT ( $, .STERADIAN. ) SOLID_ANGLE_UNIT ( ) );
#34 = CIRCLE ( 'NONE', #156, 2.549999999999992273 ) ;
#35 = APPROVAL_DATE_TIME ( #322, #78 ) ;
#36 = ORIENTED_EDGE ( 'NONE', *, *, #256, .F. ) ;
#37 = CARTESIAN_POINT ( 'NONE',  ( 2.143769542049683754E-13, -7.519331346764748510E-15, 61.39999999999999858 ) ) ;
#38 = DATE_AND_TIME ( #274, #48 ) ;
#39 = ORIENTED_EDGE ( 'NONE', *, *, #182, .T. ) ;
#40 = PRODUCT_DEFINITION_SHAPE ( 'NONE', 'NONE',  #239 ) ;
#41 = CARTESIAN_POINT ( 'NONE',  ( 0.0000000000000000000, 0.0000000000000000000, 0.0000000000000000000 ) ) ;
#42 = VECTOR ( 'NONE', #192, 999.9999999999998863 ) ;
#43 = AXIS2_PLACEMENT_3D ( 'NONE', #131, #247, #86 ) ;
#44 = CARTESIAN_POINT ( 'NONE',  ( 5.349628778380215673E-15, -2.549999999999992273, 1.532194578520290840 ) ) ;
#45 = AXIS2_PLACEMENT_3D ( 'NONE', #261, #28, #183 ) ;
#46 = EDGE_CURVE ( 'NONE', #270, #301, #155, .T. ) ;
#47 = ORIENTED_EDGE ( 'NONE', *, *, #26, .T. ) ;
#48 = LOCAL_TIME ( 9, 21, 51.00000000000000000, #56 ) ;
#49 = DIRECTION ( 'NONE',  ( -3.491481338843133355E-15, 1.224646799147353207E-16, -1.000000000000000000 ) ) ;
#50 = APPLICATION_PROTOCOL_DEFINITION ( 'international standard', 'config_control_design', 1994, #279 ) ;
#51 = DIRECTION ( 'NONE',  ( 3.491481338843133355E-15, -1.224646799147353207E-16, 1.000000000000000000 ) ) ;
#52 = ADVANCED_FACE ( 'NONE', ( #140 ), #201, .F. ) ;
#53 = AXIS2_PLACEMENT_3D ( 'NONE', #216, #87, #195 ) ;
#54 = LINE ( 'NONE', #151, #328 ) ;
#55 = ORIENTED_EDGE ( 'NONE', *, *, #259, .F. ) ;
#56 = COORDINATED_UNIVERSAL_TIME_OFFSET ( 1, 0, .AHEAD. ) ;
#57 = CIRCLE ( 'NONE', #231, 2.549999999999994937 ) ;
#58 = AXIS2_PLACEMENT_3D ( 'NONE', #125, #265, #288 ) ;
#59 = FACE_OUTER_BOUND ( 'NONE', #169, .T. ) ;
#60 = ORIENTED_EDGE ( 'NONE', *, *, #318, .F. ) ;
#61 = DIRECTION ( 'NONE',  ( 3.021066579430967174E-31, 1.000000000000000000, 8.503546450866726699E-17 ) ) ;
#62 = DATE_AND_TIME ( #269, #141 ) ;
#63 = ORIENTED_EDGE ( 'NONE', *, *, #83, .F. ) ;
#64 = ORIENTED_EDGE ( 'NONE', *, *, #329, .T. ) ;
#65 = PERSON_AND_ORGANIZATION ( #229, #10 ) ;
#66 = ORIENTED_EDGE ( 'NONE', *, *, #101, .T. ) ;
#67 = CARTESIAN_POINT ( 'NONE',  ( 5.661913712162791405E-15, 2.549999999999992273, 1.532194578520291284 ) ) ;
#68 = CC_DESIGN_PERSON_AND_ORGANIZATION_ASSIGNMENT ( #98, #292, ( #239 ) ) ;
#69 = AXIS2_PLACEMENT_3D ( 'NONE', #100, #263, #123 ) ;
#70 = PERSON_AND_ORGANIZATION ( #229, #10 ) ;
#71 = VERTEX_POINT ( 'NONE', #136 ) ;
#72 = CARTESIAN_POINT ( 'NONE',  ( 2.164718430082742680E-13, -7.592810154713590230E-15, 62.00000000000000000 ) ) ;
#73 = AXIS2_PLACEMENT_3D ( 'NONE', #204, #187, #30 ) ;
#74 = CONICAL_SURFACE ( 'NONE', #58, 1.950000000000000178, 0.7853981633974452814 ) ;
#75 = CC_DESIGN_PERSON_AND_ORGANIZATION_ASSIGNMENT ( #70, #91, ( #174 ) ) ;
#76 = DIRECTION ( 'NONE',  ( 3.491481338843133355E-15, -1.224646799147353207E-16, 1.000000000000000000 ) ) ;
#77 = AXIS2_PLACEMENT_3D ( 'NONE', #119, #5, #18 ) ;
#78 = APPROVAL ( #20, 'UNSPECIFIED' ) ;
#79 = DIRECTION ( 'NONE',  ( -3.021066579430967174E-31, -1.000000000000000000, -8.503546450866726699E-17 ) ) ;
#80 = LOCAL_TIME ( 9, 21, 51.00000000000000000, #221 ) ;
#81 = ORIENTED_EDGE ( 'NONE', *, *, #286, .T. ) ;
#82 = PLANE ( 'NONE',  #73 ) ;
#83 = EDGE_CURVE ( 'NONE', #301, #270, #57, .T. ) ;
#84 = PERSON_AND_ORGANIZATION_ROLE ( 'creator' ) ;
#85 = ORIENTED_EDGE ( 'NONE', *, *, #256, .T. ) ;
#86 = DIRECTION ( 'NONE',  ( 4.275831445896959482E-31, 1.000000000000000000, 1.224646799147353207E-16 ) ) ;
#87 = DIRECTION ( 'NONE',  ( -3.491481338843133355E-15, 1.224646799147353207E-16, -1.000000000000000000 ) ) ;
#88 = EDGE_LOOP ( 'NONE', ( #167, #250, #16, #245 ) ) ;
#89 = APPROVAL_PERSON_ORGANIZATION ( #166, #78, #172 ) ;
#90 = DIRECTION ( 'NONE',  ( 0.0000000000000000000, 1.000000000000000000, 0.0000000000000000000 ) ) ;
#91 = PERSON_AND_ORGANIZATION_ROLE ( 'classification_officer' ) ;
#92 = AXIS2_PLACEMENT_3D ( 'NONE', #24, #309, #228 ) ;
#93 = DIRECTION ( 'NONE',  ( 0.0000000000000000000, 0.0000000000000000000, 1.000000000000000000 ) ) ;
#94 = ADVANCED_FACE ( 'NONE', ( #324 ), #189, .T. ) ;
#95 = EDGE_CURVE ( 'NONE', #296, #320, #164, .T. ) ;
#96 = LINE ( 'NONE', #334, #260 ) ;
#97 = APPLICATION_PROTOCOL_DEFINITION ( 'international standard', 'config_control_design', 1994, #122 ) ;
#98 = PERSON_AND_ORGANIZATION ( #229, #10 ) ;
#99 = VERTEX_POINT ( 'NONE', #112 ) ;
#100 = CARTESIAN_POINT ( 'NONE',  ( 2.164718430082742680E-13, -7.592810154713590230E-15, 62.00000000000000000 ) ) ;
#101 = EDGE_CURVE ( 'NONE', #99, #197, #222, .T. ) ;
#102 = CYLINDRICAL_SURFACE ( 'NONE', #53, 2.549999999999997602 ) ;
#103 = ORIENTED_EDGE ( 'NONE', *, *, #153, .T. ) ;
#104 = DIRECTION ( 'NONE',  ( -3.491481338843133355E-15, 1.224646799147353207E-16, -1.000000000000000000 ) ) ;
#105 = FACE_OUTER_BOUND ( 'NONE', #304, .T. ) ;
#106 = APPROVAL_DATE_TIME ( #129, #120 ) ;
#107 = ORIENTED_EDGE ( 'NONE', *, *, #153, .F. ) ;
#108 = AXIS2_PLACEMENT_3D ( 'NONE', #206, #49, #332 ) ;
#109 = CIRCLE ( 'NONE', #149, 2.549999999999999822 ) ;
#110 = ORIENTED_EDGE ( 'NONE', *, *, #46, .T. ) ;
#111 = CARTESIAN_POINT ( 'NONE',  ( 2.164718430082742680E-13, 1.462265788095299673E-32, 62.00000000000000000 ) ) ;
#112 = CARTESIAN_POINT ( 'NONE',  ( 0.0000000000000000000, 0.0000000000000000000, 0.0000000000000000000 ) ) ;
#113 = SECURITY_CLASSIFICATION_LEVEL ( 'unclassified' ) ;
#114 = DIRECTION ( 'NONE',  ( 0.0000000000000000000, 1.000000000000000000, 0.0000000000000000000 ) ) ;
#115 = DIRECTION ( 'NONE',  ( -3.491481338843133355E-15, 1.224646799147353207E-16, -1.000000000000000000 ) ) ;
#116 = CC_DESIGN_PERSON_AND_ORGANIZATION_ASSIGNMENT ( #65, #17, ( #232 ) ) ;
#117 = AXIS2_PLACEMENT_3D ( 'NONE', #234, #51, #154 ) ;
#118 = FACE_OUTER_BOUND ( 'NONE', #219, .T. ) ;
#119 = CARTESIAN_POINT ( 'NONE',  ( 2.143769542049683754E-13, -7.519331346764748510E-15, 61.39999999999999858 ) ) ;
#120 = APPROVAL ( #31, 'UNSPECIFIED' ) ;
#121 = CARTESIAN_POINT ( 'NONE',  ( 2.156999441364294821E-13, -1.950000000000007727, 62.00000000000000000 ) ) ;
#122 = APPLICATION_CONTEXT ( 'configuration controlled 3d designs of mechanical parts and assemblies' ) ;
#123 = DIRECTION ( 'NONE',  ( 0.0000000000000000000, 1.000000000000000000, 0.0000000000000000000 ) ) ;
#124 = CC_DESIGN_APPROVAL ( #78, ( #232 ) ) ;
#125 = CARTESIAN_POINT ( 'NONE',  ( 2.164718430082742680E-13, -7.592810154713590230E-15, 62.00000000000000000 ) ) ;
#126 = PERSON_AND_ORGANIZATION ( #229, #10 ) ;
#127 = EDGE_CURVE ( 'NONE', #270, #71, #23, .T. ) ;
#128 = CARTESIAN_POINT ( 'NONE',  ( 6.982962677686266711E-14, 2.549999999999992273, 20.00000000000000000 ) ) ;
#129 = DATE_AND_TIME ( #170, #80 ) ;
#130 = ORIENTED_EDGE ( 'NONE', *, *, #127, .F. ) ;
#131 = CARTESIAN_POINT ( 'NONE',  ( 0.0000000000000000000, 0.0000000000000000000, 0.0000000000000000000 ) ) ;
#132 = PRODUCT ( '29759', '29759', '', ( #312 ) ) ;
#133 = PERSON_AND_ORGANIZATION ( #229, #10 ) ;
#134 = ORIENTED_EDGE ( 'NONE', *, *, #95, .F. ) ;
#135 = CARTESIAN_POINT ( 'NONE',  ( 3.122849337825732177E-16, -2.549999999999993605, -3.122849337825753871E-16 ) ) ;
#136 = CARTESIAN_POINT ( 'NONE',  ( 5.349628778380215673E-15, -2.549999999999992273, 1.532194578520290840 ) ) ;
#137 = ADVANCED_FACE ( 'NONE', ( #13 ), #214, .T. ) ;
#138 = CALENDAR_DATE ( 2021, 3, 9 ) ;
#139 = CYLINDRICAL_SURFACE ( 'NONE', #108, 2.549999999999993605 ) ;
#140 = FACE_OUTER_BOUND ( 'NONE', #236, .T. ) ;
#141 = LOCAL_TIME ( 9, 21, 51.00000000000000000, #271 ) ;
#142 = DATE_TIME_ROLE ( 'classification_date' ) ;
#143 = CARTESIAN_POINT ( 'NONE',  ( 6.982962677686266711E-14, -2.449293598294706513E-15, 20.00000000000000000 ) ) ;
#144 = ADVANCED_FACE ( 'NONE', ( #218 ), #277, .T. ) ;
#145 = LINE ( 'NONE', #25, #310 ) ;
#146 = PLANE ( 'NONE',  #92 ) ;
#147 = APPROVAL_PERSON_ORGANIZATION ( #242, #289, #240 ) ;
#148 = CARTESIAN_POINT ( 'NONE',  ( 2.143769542049683754E-13, 2.549999999999992273, 61.39999999999999858 ) ) ;
#149 = AXIS2_PLACEMENT_3D ( 'NONE', #37, #177, #330 ) ;
#150 = CARTESIAN_POINT ( 'NONE',  ( 1.090337018703721826E-30, 2.549999999999993605, 3.122849337825743024E-16 ) ) ;
#151 = CARTESIAN_POINT ( 'NONE',  ( 2.167106491341079902E-13, -1.950000000000007727, 62.00000000000000000 ) ) ;
#152 = VERTEX_POINT ( 'NONE', #161 ) ;
#153 = EDGE_CURVE ( 'NONE', #296, #152, #109, .T. ) ;
#154 = DIRECTION ( 'NONE',  ( -3.021066579430967174E-31, -1.000000000000000000, -8.503546450866726699E-17 ) ) ;
#155 = CIRCLE ( 'NONE', #19, 2.549999999999994937 ) ;
#156 = AXIS2_PLACEMENT_3D ( 'NONE', #225, #243, #11 ) ;
#157 = DIRECTION ( 'NONE',  ( -2.382254525458724175E-15, -0.7071067811865452413, -0.7071067811865497932 ) ) ;
#158 = EDGE_LOOP ( 'NONE', ( #64, #32, #107, #215 ) ) ;
#159 = DIRECTION ( 'NONE',  ( 0.0000000000000000000, 1.000000000000000000, 0.0000000000000000000 ) ) ;
#160 = ORIENTED_EDGE ( 'NONE', *, *, #83, .T. ) ;
#161 = CARTESIAN_POINT ( 'NONE',  ( 1.424155754246979810E-13, -2.550000000000006928, 61.39999999999999858 ) ) ;
#162 = CIRCLE ( 'NONE', #21, 2.549999999999992273 ) ;
#163 = CC_DESIGN_DATE_AND_TIME_ASSIGNMENT ( #38, #196, ( #239 ) ) ;
#164 = LINE ( 'NONE', #251, #184 ) ;
#165 = CARTESIAN_POINT ( 'NONE',  ( 3.790191271140398241E-14, -2.549999999999998046, 20.00000000000000000 ) ) ;
#166 = PERSON_AND_ORGANIZATION ( #229, #10 ) ;
#167 = ORIENTED_EDGE ( 'NONE', *, *, #205, .F. ) ;
#168 = MANIFOLD_SOLID_BREP ( 'Corps-Déplacer/Copier1[2]', #198 ) ;
#169 = EDGE_LOOP ( 'NONE', ( #36, #66, #191 ) ) ;
#170 = CALENDAR_DATE ( 2021, 3, 9 ) ;
#171 = CARTESIAN_POINT ( 'NONE',  ( 6.982962677686266711E-14, -2.449293598294706513E-15, 20.00000000000000000 ) ) ;
#172 = APPROVAL_ROLE ( '' ) ;
#173 = DIRECTION ( 'NONE',  ( -3.491481338843133355E-15, 1.224646799147353207E-16, -1.000000000000000000 ) ) ;
#174 = SECURITY_CLASSIFICATION ( '', '', #113 ) ;
#175 = ADVANCED_FACE ( 'NONE', ( #179 ), #74, .T. ) ;
#176 = APPROVAL_PERSON_ORGANIZATION ( #253, #120, #249 ) ;
#177 = DIRECTION ( 'NONE',  ( -3.491481338843133355E-15, 1.224646799147353207E-16, -1.000000000000000000 ) ) ;
#178 = AXIS2_PLACEMENT_3D ( 'NONE', #211, #76, #79 ) ;
#179 = FACE_OUTER_BOUND ( 'NONE', #158, .T. ) ;
#180 = CALENDAR_DATE ( 2021, 3, 9 ) ;
#181 = CARTESIAN_POINT ( 'NONE',  ( 6.982962677686266711E-14, -2.449293598294706513E-15, 20.00000000000000000 ) ) ;
#182 = EDGE_CURVE ( 'NONE', #209, #320, #266, .T. ) ;
#183 = DIRECTION ( 'NONE',  ( 0.0000000000000000000, 1.000000000000000000, 0.0000000000000000000 ) ) ;
#184 = VECTOR ( 'NONE', #257, 1000.000000000000000 ) ;
#185 = ORIENTED_EDGE ( 'NONE', *, *, #325, .T. ) ;
#186 = AXIS2_PLACEMENT_3D ( 'NONE', #41, #302, #254 ) ;
#187 = DIRECTION ( 'NONE',  ( 3.491481338843133355E-15, -1.224646799147353207E-16, 1.000000000000000000 ) ) ;
#188 = ORIENTED_EDGE ( 'NONE', *, *, #127, .T. ) ;
#189 = CYLINDRICAL_SURFACE ( 'NONE', #43, 2.549999999999993605 ) ;
#190 = ADVANCED_FACE ( 'NONE', ( #59 ), #208, .T. ) ;
#191 = ORIENTED_EDGE ( 'NONE', *, *, #259, .T. ) ;
#192 = DIRECTION ( 'NONE',  ( 1.903218546456022717E-15, 0.8571673007021097801, 0.5150380749100585964 ) ) ;
#193 = DIRECTION ( 'NONE',  ( -3.491481338843133355E-15, 1.224646799147353207E-16, -1.000000000000000000 ) ) ;
#194 = ORIENTED_EDGE ( 'NONE', *, *, #286, .F. ) ;
#195 = DIRECTION ( 'NONE',  ( 4.275831445896958607E-31, 1.000000000000000000, 1.224646799147353207E-16 ) ) ;
#196 = DATE_TIME_ROLE ( 'creation_date' ) ;
#197 = VERTEX_POINT ( 'NONE', #268 ) ;
#198 = CLOSED_SHELL ( 'NONE', ( #7, #190, #227, #94, #336 ) ) ;
#199 = LOCAL_TIME ( 9, 21, 51.00000000000000000, #315 ) ;
#200 = ORIENTED_EDGE ( 'NONE', *, *, #223, .F. ) ;
#201 = PLANE ( 'NONE',  #207 ) ;
#202 = VERTEX_POINT ( 'NONE', #241 ) ;
#203 = DIRECTION ( 'NONE',  ( -3.491481338843133355E-15, 1.224646799147353207E-16, -1.000000000000000000 ) ) ;
#204 = CARTESIAN_POINT ( 'NONE',  ( 6.982962677686266711E-14, 1.912193722893861060E-32, 20.00000000000000000 ) ) ;
#205 = EDGE_CURVE ( 'NONE', #152, #209, #96, .T. ) ;
#206 = CARTESIAN_POINT ( 'NONE',  ( 0.0000000000000000000, 0.0000000000000000000, 0.0000000000000000000 ) ) ;
#207 = AXIS2_PLACEMENT_3D ( 'NONE', #111, #173, #224 ) ;
#208 = CONICAL_SURFACE ( 'NONE', #117, 2.549999999999992273, 1.029744258676649649 ) ;
#209 = VERTEX_POINT ( 'NONE', #235 ) ;
#210 = CC_DESIGN_PERSON_AND_ORGANIZATION_ASSIGNMENT ( #126, #335, ( #132 ) ) ;
#211 = CARTESIAN_POINT ( 'NONE',  ( 5.349628778380216462E-15, -1.876397186255802461E-16, 1.532194578520291062 ) ) ;
#212 = DIRECTION ( 'NONE',  ( -3.491481338843133355E-15, 1.224646799147353207E-16, -1.000000000000000000 ) ) ;
#213 = ORIENTED_EDGE ( 'NONE', *, *, #46, .F. ) ;
#214 = CONICAL_SURFACE ( 'NONE', #287, 1.950000000000000178, 0.7853981633974452814 ) ;
#215 = ORIENTED_EDGE ( 'NONE', *, *, #26, .F. ) ;
#216 = CARTESIAN_POINT ( 'NONE',  ( 0.0000000000000000000, 0.0000000000000000000, 0.0000000000000000000 ) ) ;
#217 = ORIENTED_EDGE ( 'NONE', *, *, #233, .F. ) ;
#218 = FACE_OUTER_BOUND ( 'NONE', #88, .T. ) ;
#219 = EDGE_LOOP ( 'NONE', ( #63, #213 ) ) ;
#220 = DIRECTION ( 'NONE',  ( 0.0000000000000000000, 1.000000000000000000, 0.0000000000000000000 ) ) ;
#221 = COORDINATED_UNIVERSAL_TIME_OFFSET ( 1, 0, .AHEAD. ) ;
#222 = LINE ( 'NONE', #67, #42 ) ;
#223 = EDGE_CURVE ( 'NONE', #301, #197, #337, .T. ) ;
#224 = DIRECTION ( 'NONE',  ( 4.275831445896958607E-31, 1.000000000000000000, 1.224646799147353207E-16 ) ) ;
#225 = CARTESIAN_POINT ( 'NONE',  ( 5.349628778380216462E-15, -1.876397186255802461E-16, 1.532194578520291062 ) ) ;
#226 = AXIS2_PLACEMENT_3D ( 'NONE', #143, #282, #114 ) ;
#227 = ADVANCED_FACE ( 'NONE', ( #316 ), #311, .T. ) ;
#228 = DIRECTION ( 'NONE',  ( -4.275831445896958607E-31, -1.000000000000000000, -1.224646799147353207E-16 ) ) ;
#229 = PERSON ( 'UNSPECIFIED', 'UNSPECIFIED', 'UNSPECIFIED', ('UNSPECIFIED'), ('UNSPECIFIED'), ('UNSPECIFIED') ) ;
#230 = VECTOR ( 'NONE', #307, 1000.000000000000000 ) ;
#231 = AXIS2_PLACEMENT_3D ( 'NONE', #171, #9, #159 ) ;
#232 = PRODUCT_DEFINITION_FORMATION_WITH_SPECIFIED_SOURCE ( 'ANY', '', #132, .NOT_KNOWN. ) ;
#233 = EDGE_CURVE ( 'NONE', #278, #152, #54, .T. ) ;
#234 = CARTESIAN_POINT ( 'NONE',  ( 5.349628778380216462E-15, -1.876397186255802461E-16, 1.532194578520291062 ) ) ;
#235 = CARTESIAN_POINT ( 'NONE',  ( 1.424155754246980820E-13, -2.549999999999997602, 20.00000000000000000 ) ) ;
#236 = EDGE_LOOP ( 'NONE', ( #12, #15 ) ) ;
#237 = CARTESIAN_POINT ( 'NONE',  ( 2.164718430082742680E-13, -7.592810154713590230E-15, 62.00000000000000000 ) ) ;
#238 = CIRCLE ( 'NONE', #77, 2.549999999999999822 ) ;
#239 = PRODUCT_DEFINITION ( 'UNKNOWN', '', #232, #290 ) ;
#240 = APPROVAL_ROLE ( '' ) ;
#241 = CARTESIAN_POINT ( 'NONE',  ( 2.164718430082742680E-13, 1.949999999999992628, 62.00000000000000000 ) ) ;
#242 = PERSON_AND_ORGANIZATION ( #229, #10 ) ;
#243 = DIRECTION ( 'NONE',  ( -3.491481338843133355E-15, 1.224646799147353207E-16, -1.000000000000000000 ) ) ;
#244 = CIRCLE ( 'NONE', #272, 1.950000000000000178 ) ;
#245 = ORIENTED_EDGE ( 'NONE', *, *, #182, .F. ) ;
#246 = CARTESIAN_POINT ( 'NONE',  ( 5.349628778380216462E-15, -1.876397186255802461E-16, 1.532194578520291062 ) ) ;
#247 = DIRECTION ( 'NONE',  ( -3.491481338843133355E-15, 1.224646799147353207E-16, -1.000000000000000000 ) ) ;
#248 = PRODUCT_RELATED_PRODUCT_CATEGORY ( 'detail', '', ( #132 ) ) ;
#249 = APPROVAL_ROLE ( '' ) ;
#250 = ORIENTED_EDGE ( 'NONE', *, *, #298, .T. ) ;
#251 = CARTESIAN_POINT ( 'NONE',  ( 1.090337018703723402E-30, 2.549999999999997602, 3.122849337825747954E-16 ) ) ;
#252 = EDGE_LOOP ( 'NONE', ( #81, #39 ) ) ;
#253 = PERSON_AND_ORGANIZATION ( #229, #10 ) ;
#254 = DIRECTION ( 'NONE',  ( 4.275831445896958607E-31, 1.000000000000000000, 1.224646799147353207E-16 ) ) ;
#255 = CIRCLE ( 'NONE', #69, 1.950000000000000178 ) ;
#256 = EDGE_CURVE ( 'NONE', #99, #71, #14, .T. ) ;
#257 = DIRECTION ( 'NONE',  ( -3.491481338843133355E-15, 1.224646799147353207E-16, -1.000000000000000000 ) ) ;
#258 = DIRECTION ( 'NONE',  ( 1.000000000000000000, 0.0000000000000000000, 0.0000000000000000000 ) ) ;
#259 = EDGE_CURVE ( 'NONE', #197, #71, #34, .T. ) ;
#260 = VECTOR ( 'NONE', #291, 1000.000000000000000 ) ;
#261 = CARTESIAN_POINT ( 'NONE',  ( 6.982962677686266711E-14, -2.449293598294706513E-15, 20.00000000000000000 ) ) ;
#262 = EDGE_LOOP ( 'NONE', ( #327, #85, #299 ) ) ;
#263 = DIRECTION ( 'NONE',  ( -3.491481338843133355E-15, 1.224646799147353207E-16, -1.000000000000000000 ) ) ;
#264 = ADVANCED_FACE ( 'NONE', ( #105 ), #102, .T. ) ;
#265 = DIRECTION ( 'NONE',  ( -3.491481338843133355E-15, 1.224646799147353207E-16, -1.000000000000000000 ) ) ;
#266 = CIRCLE ( 'NONE', #45, 2.549999999999994937 ) ;
#267 =( NAMED_UNIT ( * ) PLANE_ANGLE_UNIT ( ) SI_UNIT ( $, .RADIAN. ) );
#268 = CARTESIAN_POINT ( 'NONE',  ( 5.661913712162791405E-15, 2.549999999999992273, 1.532194578520291284 ) ) ;
#269 = CALENDAR_DATE ( 2021, 3, 9 ) ;
#270 = VERTEX_POINT ( 'NONE', #165 ) ;
#271 = COORDINATED_UNIVERSAL_TIME_OFFSET ( 1, 0, .AHEAD. ) ;
#272 = AXIS2_PLACEMENT_3D ( 'NONE', #237, #115, #220 ) ;
#273 = EDGE_LOOP ( 'NONE', ( #160, #188, #55, #200 ) ) ;
#274 = CALENDAR_DATE ( 2021, 3, 9 ) ;
#275 = FACE_OUTER_BOUND ( 'NONE', #273, .T. ) ;
#276 = SHAPE_DEFINITION_REPRESENTATION ( #40, #27 ) ;
#277 = CYLINDRICAL_SURFACE ( 'NONE', #186, 2.549999999999997602 ) ;
#278 = VERTEX_POINT ( 'NONE', #121 ) ;
#279 = APPLICATION_CONTEXT ( 'configuration controlled 3d designs of mechanical parts and assemblies' ) ;
#280 = CC_DESIGN_APPROVAL ( #120, ( #174 ) ) ;
#281 = MANIFOLD_SOLID_BREP ( 'Corps-Déplacer/Copier1[1]', #3 ) ;
#282 = DIRECTION ( 'NONE',  ( -3.491481338843133355E-15, 1.224646799147353207E-16, -1.000000000000000000 ) ) ;
#283 = CC_DESIGN_PERSON_AND_ORGANIZATION_ASSIGNMENT ( #133, #84, ( #232 ) ) ;
#284 = CARTESIAN_POINT ( 'NONE',  ( 0.0000000000000000000, 0.0000000000000000000, 0.0000000000000000000 ) ) ;
#285 = LOCAL_TIME ( 9, 21, 51.00000000000000000, #300 ) ;
#286 = EDGE_CURVE ( 'NONE', #320, #209, #314, .T. ) ;
#287 = AXIS2_PLACEMENT_3D ( 'NONE', #72, #104, #305 ) ;
#288 = DIRECTION ( 'NONE',  ( 0.0000000000000000000, 1.000000000000000000, 0.0000000000000000000 ) ) ;
#289 = APPROVAL ( #2, 'UNSPECIFIED' ) ;
#290 = DESIGN_CONTEXT ( 'detailed design', #122, 'design' ) ;
#291 = DIRECTION ( 'NONE',  ( -3.491481338843133355E-15, 1.224646799147353207E-16, -1.000000000000000000 ) ) ;
#292 = PERSON_AND_ORGANIZATION_ROLE ( 'creator' ) ;
#293 =( LENGTH_UNIT ( ) NAMED_UNIT ( * ) SI_UNIT ( .MILLI., .METRE. ) );
#294 = UNCERTAINTY_MEASURE_WITH_UNIT (LENGTH_MEASURE( 1.000000000000000082E-05 ), #293, 'distance_accuracy_value', 'NONE');
#295 =( GEOMETRIC_REPRESENTATION_CONTEXT ( 3 ) GLOBAL_UNCERTAINTY_ASSIGNED_CONTEXT ( ( #294 ) ) GLOBAL_UNIT_ASSIGNED_CONTEXT ( ( #293, #267, #33 ) ) REPRESENTATION_CONTEXT ( 'NONE', 'WORKASPACE' ) );
#296 = VERTEX_POINT ( 'NONE', #148 ) ;
#297 = CARTESIAN_POINT ( 'NONE',  ( 6.982962677686266711E-14, 2.549999999999992273, 20.00000000000000000 ) ) ;
#298 = EDGE_CURVE ( 'NONE', #152, #296, #238, .T. ) ;
#299 = ORIENTED_EDGE ( 'NONE', *, *, #318, .T. ) ;
#300 = COORDINATED_UNIVERSAL_TIME_OFFSET ( 1, 0, .AHEAD. ) ;
#301 = VERTEX_POINT ( 'NONE', #297 ) ;
#302 = DIRECTION ( 'NONE',  ( -3.491481338843133355E-15, 1.224646799147353207E-16, -1.000000000000000000 ) ) ;
#303 = AXIS2_PLACEMENT_3D ( 'NONE', #284, #93, #258 ) ;
#304 = EDGE_LOOP ( 'NONE', ( #103, #313, #194, #134 ) ) ;
#305 = DIRECTION ( 'NONE',  ( 0.0000000000000000000, 1.000000000000000000, 0.0000000000000000000 ) ) ;
#306 = ADVANCED_FACE ( 'NONE', ( #321 ), #82, .F. ) ;
#307 = DIRECTION ( 'NONE',  ( -3.491481338843133355E-15, 1.224646799147353207E-16, -1.000000000000000000 ) ) ;
#308 = CC_DESIGN_DATE_AND_TIME_ASSIGNMENT ( #62, #142, ( #174 ) ) ;
#309 = DIRECTION ( 'NONE',  ( 3.491481338843133355E-15, -1.224646799147353207E-16, 1.000000000000000000 ) ) ;
#310 = VECTOR ( 'NONE', #333, 1000.000000000000000 ) ;
#311 = CONICAL_SURFACE ( 'NONE', #178, 2.549999999999992273, 1.029744258676649649 ) ;
#312 = MECHANICAL_CONTEXT ( 'NONE', #279, 'mechanical' ) ;
#313 = ORIENTED_EDGE ( 'NONE', *, *, #205, .T. ) ;
#314 = CIRCLE ( 'NONE', #226, 2.549999999999994937 ) ;
#315 = COORDINATED_UNIVERSAL_TIME_OFFSET ( 1, 0, .AHEAD. ) ;
#316 = FACE_OUTER_BOUND ( 'NONE', #262, .T. ) ;
#317 = EDGE_LOOP ( 'NONE', ( #217, #185, #47, #1 ) ) ;
#318 = EDGE_CURVE ( 'NONE', #71, #197, #162, .T. ) ;
#319 = VECTOR ( 'NONE', #212, 1000.000000000000000 ) ;
#320 = VERTEX_POINT ( 'NONE', #128 ) ;
#321 = FACE_OUTER_BOUND ( 'NONE', #252, .T. ) ;
#322 = DATE_AND_TIME ( #138, #285 ) ;
#323 = ORIENTED_EDGE ( 'NONE', *, *, #223, .T. ) ;
#324 = FACE_OUTER_BOUND ( 'NONE', #326, .T. ) ;
#325 = EDGE_CURVE ( 'NONE', #278, #202, #255, .T. ) ;
#326 = EDGE_LOOP ( 'NONE', ( #130, #110, #323, #60 ) ) ;
#327 = ORIENTED_EDGE ( 'NONE', *, *, #101, .F. ) ;
#328 = VECTOR ( 'NONE', #157, 1000.000000000000000 ) ;
#329 = EDGE_CURVE ( 'NONE', #202, #278, #244, .T. ) ;
#330 = DIRECTION ( 'NONE',  ( 0.0000000000000000000, 1.000000000000000000, 0.0000000000000000000 ) ) ;
#331 = CC_DESIGN_APPROVAL ( #289, ( #239 ) ) ;
#332 = DIRECTION ( 'NONE',  ( 4.275831445896959482E-31, 1.000000000000000000, 1.224646799147353207E-16 ) ) ;
#333 = DIRECTION ( 'NONE',  ( -2.468850131082272443E-15, 0.7071067811865454633, -0.7071067811865495711 ) ) ;
#334 = CARTESIAN_POINT ( 'NONE',  ( 3.122849337825736614E-16, -2.549999999999997602, -3.122849337825758308E-16 ) ) ;
#335 = PERSON_AND_ORGANIZATION_ROLE ( 'design_owner' ) ;
#336 = ADVANCED_FACE ( 'NONE', ( #118 ), #146, .T. ) ;
#337 = LINE ( 'NONE', #150, #319 ) ;
ENDSEC;
END-ISO-10303-21;
