ISO-10303-21;
HEADER;
FILE_DESCRIPTION (( 'STEP AP203' ),
    '1' );
FILE_NAME ('29758.step',
    '2021-09-03T07:21:51',
    ( '' ),
    ( '' ),
    'SwSTEP 2.0',
    'SolidWorks 2019',
    '' );
FILE_SCHEMA (( 'CONFIG_CONTROL_DESIGN' ));
ENDSEC;

DATA;
#1 = PLANE ( 'NONE',  #110 ) ;
#2 = COORDINATED_UNIVERSAL_TIME_OFFSET ( 1, 0, .AHEAD. ) ;
#3 = LOCAL_TIME ( 9, 21, 51.00000000000000000, #284 ) ;
#4 = DIRECTION ( 'NONE',  ( 3.491481338843133355E-15, -1.224646799147353207E-16, 1.000000000000000000 ) ) ;
#5 = PERSON_AND_ORGANIZATION_ROLE ( 'creator' ) ;
#6 = DIRECTION ( 'NONE',  ( -4.275831445896958607E-31, -1.000000000000000000, -1.224646799147353207E-16 ) ) ;
#7 = EDGE_LOOP ( 'NONE', ( #34, #140 ) ) ;
#8 = DIRECTION ( 'NONE',  ( 0.0000000000000000000, 1.000000000000000000, 0.0000000000000000000 ) ) ;
#9 = FACE_OUTER_BOUND ( 'NONE', #230, .T. ) ;
#10 = ORIENTED_EDGE ( 'NONE', *, *, #189, .T. ) ;
#11 = CLOSED_SHELL ( 'NONE', ( #159, #336, #272, #84, #118 ) ) ;
#12 = CIRCLE ( 'NONE', #137, 2.499999999999995115 ) ;
#13 = DIRECTION ( 'NONE',  ( 4.275831445896959482E-31, 1.000000000000000000, 1.224646799147353454E-16 ) ) ;
#14 = DIRECTION ( 'NONE',  ( -2.382254525458721019E-15, -0.7071067811865462405, -0.7071067811865489050 ) ) ;
#15 = EDGE_LOOP ( 'NONE', ( #55, #266, #124, #236 ) ) ;
#16 = CARTESIAN_POINT ( 'NONE',  ( 3.784334213644373353E-14, -2.499999999999997780, 20.00000000000000000 ) ) ;
#17 = EDGE_LOOP ( 'NONE', ( #254, #156 ) ) ;
#18 = CIRCLE ( 'NONE', #147, 2.499999999999992895 ) ;
#19 =( NAMED_UNIT ( * ) PLANE_ANGLE_UNIT ( ) SI_UNIT ( $, .RADIAN. ) );
#20 = VECTOR ( 'NONE', #292, 1000.000000000000000 ) ;
#21 = ORIENTED_EDGE ( 'NONE', *, *, #115, .T. ) ;
#22 = CARTESIAN_POINT ( 'NONE',  ( 1.424094521907023086E-13, -2.499999999999997780, 20.00000000000000000 ) ) ;
#23 = EDGE_CURVE ( 'NONE', #28, #180, #271, .T. ) ;
#24 = ORIENTED_EDGE ( 'NONE', *, *, #130, .T. ) ;
#25 = CARTESIAN_POINT ( 'NONE',  ( 2.164718430082742680E-13, -7.592810154713590230E-15, 62.00000000000000000 ) ) ;
#26 = PRODUCT_RELATED_PRODUCT_CATEGORY ( 'detail', '', ( #44 ) ) ;
#27 = PERSON_AND_ORGANIZATION_ROLE ( 'creator' ) ;
#28 = VERTEX_POINT ( 'NONE', #245 ) ;
#29 = DIRECTION ( 'NONE',  ( -3.491481338843133355E-15, 1.224646799147353207E-16, -1.000000000000000000 ) ) ;
#30 = CARTESIAN_POINT ( 'NONE',  ( 2.143769542049683754E-13, -7.519331346764748510E-15, 61.39999999999999858 ) ) ;
#31 = ORIENTED_EDGE ( 'NONE', *, *, #201, .F. ) ;
#32 = ORIENTED_EDGE ( 'NONE', *, *, #222, .T. ) ;
#33 = CARTESIAN_POINT ( 'NONE',  ( 5.244734096451192053E-15, -2.499999999999992895, 1.502151547568912671 ) ) ;
#34 = ORIENTED_EDGE ( 'NONE', *, *, #248, .F. ) ;
#35 = CC_DESIGN_APPROVAL ( #109, ( #103 ) ) ;
#36 = PERSON_AND_ORGANIZATION ( #311, #210 ) ;
#37 = DIRECTION ( 'NONE',  ( -3.491481338843133355E-15, 1.224646799147353207E-16, -1.000000000000000000 ) ) ;
#38 = CARTESIAN_POINT ( 'NONE',  ( 6.982962677686266711E-14, -2.449293598294706513E-15, 20.00000000000000000 ) ) ;
#39 = DIRECTION ( 'NONE',  ( 0.0000000000000000000, 0.0000000000000000000, 1.000000000000000000 ) ) ;
#40 = CARTESIAN_POINT ( 'NONE',  ( 1.068957861474237112E-30, 2.499999999999993783, 3.061616997868375746E-16 ) ) ;
#41 = CIRCLE ( 'NONE', #153, 1.899999999999999023 ) ;
#42 = CC_DESIGN_APPROVAL ( #71, ( #261 ) ) ;
#43 = LINE ( 'NONE', #247, #225 ) ;
#44 = PRODUCT ( '29758', '29758', '', ( #66 ) ) ;
#45 = PERSON_AND_ORGANIZATION ( #311, #210 ) ;
#46 = DIRECTION ( 'NONE',  ( -3.491481338843133355E-15, 1.224646799147353207E-16, -1.000000000000000000 ) ) ;
#47 = ORIENTED_EDGE ( 'NONE', *, *, #201, .T. ) ;
#48 = DIRECTION ( 'NONE',  ( 0.0000000000000000000, 1.000000000000000000, 0.0000000000000000000 ) ) ;
#49 = DIRECTION ( 'NONE',  ( -3.491481338843133355E-15, 1.224646799147353207E-16, -1.000000000000000000 ) ) ;
#50 = EDGE_CURVE ( 'NONE', #331, #150, #43, .T. ) ;
#51 = COORDINATED_UNIVERSAL_TIME_OFFSET ( 1, 0, .AHEAD. ) ;
#52 = PERSON_AND_ORGANIZATION ( #311, #210 ) ;
#53 = CARTESIAN_POINT ( 'NONE',  ( 6.982962677686266711E-14, 1.874699728327314620E-32, 20.00000000000000000 ) ) ;
#54 = PERSON_AND_ORGANIZATION_ROLE ( 'design_owner' ) ;
#55 = ORIENTED_EDGE ( 'NONE', *, *, #126, .F. ) ;
#56 = EDGE_CURVE ( 'NONE', #331, #180, #332, .T. ) ;
#57 = CARTESIAN_POINT ( 'NONE',  ( 2.164718430082742680E-13, -7.592810154713590230E-15, 62.00000000000000000 ) ) ;
#58 = VECTOR ( 'NONE', #269, 999.9999999999998863 ) ;
#59 = DIRECTION ( 'NONE',  ( -4.275831445896958607E-31, -1.000000000000000000, -1.224646799147353207E-16 ) ) ;
#60 = CARTESIAN_POINT ( 'NONE',  ( 6.982962677686266711E-14, 2.499999999999992895, 20.00000000000000000 ) ) ;
#61 = ORIENTED_EDGE ( 'NONE', *, *, #294, .T. ) ;
#62 = ORIENTED_EDGE ( 'NONE', *, *, #23, .T. ) ;
#63 =( LENGTH_UNIT ( ) NAMED_UNIT ( * ) SI_UNIT ( .MILLI., .METRE. ) );
#64 = FACE_OUTER_BOUND ( 'NONE', #65, .T. ) ;
#65 = EDGE_LOOP ( 'NONE', ( #21, #317, #31, #223 ) ) ;
#66 = MECHANICAL_CONTEXT ( 'NONE', #319, 'mechanical' ) ;
#67 = FACE_OUTER_BOUND ( 'NONE', #7, .T. ) ;
#68 = AXIS2_PLACEMENT_3D ( 'NONE', #113, #141, #267 ) ;
#69 = AXIS2_PLACEMENT_3D ( 'NONE', #89, #171, #274 ) ;
#70 = DIRECTION ( 'NONE',  ( -3.491481338843133355E-15, 1.224646799147353207E-16, -1.000000000000000000 ) ) ;
#71 = APPROVAL ( #181, 'UNSPECIFIED' ) ;
#72 = DATE_TIME_ROLE ( 'classification_date' ) ;
#73 = DIRECTION ( 'NONE',  ( 1.903218546456022717E-15, 0.8571673007021097801, 0.5150380749100585964 ) ) ;
#74 = CLOSED_SHELL ( 'NONE', ( #286, #108, #305, #227, #241, #174 ) ) ;
#75 =( GEOMETRIC_REPRESENTATION_CONTEXT ( 3 ) GLOBAL_UNCERTAINTY_ASSIGNED_CONTEXT ( ( #287 ) ) GLOBAL_UNIT_ASSIGNED_CONTEXT ( ( #63, #19, #297 ) ) REPRESENTATION_CONTEXT ( 'NONE', 'WORKASPACE' ) );
#76 = CYLINDRICAL_SURFACE ( 'NONE', #275, 2.499999999999997780 ) ;
#77 = VERTEX_POINT ( 'NONE', #22 ) ;
#78 = EDGE_CURVE ( 'NONE', #192, #150, #250, .T. ) ;
#79 = FACE_OUTER_BOUND ( 'NONE', #327, .T. ) ;
#80 = ORIENTED_EDGE ( 'NONE', *, *, #50, .F. ) ;
#81 = AXIS2_PLACEMENT_3D ( 'NONE', #209, #263, #233 ) ;
#82 = FACE_OUTER_BOUND ( 'NONE', #114, .T. ) ;
#83 = APPROVAL_STATUS ( 'not_yet_approved' ) ;
#84 = ADVANCED_FACE ( 'NONE', ( #9 ), #259, .T. ) ;
#85 = COORDINATED_UNIVERSAL_TIME_OFFSET ( 1, 0, .AHEAD. ) ;
#86 = AXIS2_PLACEMENT_3D ( 'NONE', #163, #239, #143 ) ;
#87 = APPROVAL_PERSON_ORGANIZATION ( #52, #302, #136 ) ;
#88 = PERSON_AND_ORGANIZATION ( #311, #210 ) ;
#89 = CARTESIAN_POINT ( 'NONE',  ( 6.982962677686266711E-14, -2.449293598294706513E-15, 20.00000000000000000 ) ) ;
#90 = CARTESIAN_POINT ( 'NONE',  ( 0.0000000000000000000, 0.0000000000000000000, 0.0000000000000000000 ) ) ;
#91 = SHAPE_DEFINITION_REPRESENTATION ( #329, #335 ) ;
#92 = ORIENTED_EDGE ( 'NONE', *, *, #189, .F. ) ;
#93 = CARTESIAN_POINT ( 'NONE',  ( 2.164718430082742680E-13, 1.899999999999991251, 62.00000000000000000 ) ) ;
#94 = CC_DESIGN_PERSON_AND_ORGANIZATION_ASSIGNMENT ( #293, #27, ( #261 ) ) ;
#95 = APPLICATION_PROTOCOL_DEFINITION ( 'international standard', 'config_control_design', 1994, #319 ) ;
#96 = CARTESIAN_POINT ( 'NONE',  ( 0.0000000000000000000, 0.0000000000000000000, 0.0000000000000000000 ) ) ;
#97 = LINE ( 'NONE', #117, #203 ) ;
#98 = CALENDAR_DATE ( 2021, 3, 9 ) ;
#99 = DIRECTION ( 'NONE',  ( -3.491481338843133355E-15, 1.224646799147353207E-16, -1.000000000000000000 ) ) ;
#100 = LOCAL_TIME ( 9, 21, 51.00000000000000000, #85 ) ;
#101 = SECURITY_CLASSIFICATION_LEVEL ( 'unclassified' ) ;
#102 = APPROVAL_STATUS ( 'not_yet_approved' ) ;
#103 = SECURITY_CLASSIFICATION ( '', '', #101 ) ;
#104 = CARTESIAN_POINT ( 'NONE',  ( 5.550895796238031501E-15, 2.499999999999992895, 1.502151547568913115 ) ) ;
#105 = CARTESIAN_POINT ( 'NONE',  ( 3.061616997868365392E-16, -2.499999999999993783, -3.061616997868386592E-16 ) ) ;
#106 = CIRCLE ( 'NONE', #69, 2.499999999999995115 ) ;
#107 = EDGE_LOOP ( 'NONE', ( #187, #121 ) ) ;
#108 = ADVANCED_FACE ( 'NONE', ( #82 ), #318, .T. ) ;
#109 = APPROVAL ( #102, 'UNSPECIFIED' ) ;
#110 = AXIS2_PLACEMENT_3D ( 'NONE', #53, #229, #6 ) ;
#111 = CALENDAR_DATE ( 2021, 3, 9 ) ;
#112 = CARTESIAN_POINT ( 'NONE',  ( 0.0000000000000000000, 0.0000000000000000000, 0.0000000000000000000 ) ) ;
#113 = CARTESIAN_POINT ( 'NONE',  ( 6.982962677686266711E-14, -2.449293598294706513E-15, 20.00000000000000000 ) ) ;
#114 = EDGE_LOOP ( 'NONE', ( #24, #185, #135, #288 ) ) ;
#115 = EDGE_CURVE ( 'NONE', #28, #192, #195, .T. ) ;
#116 = DIRECTION ( 'NONE',  ( 4.275831445896959482E-31, 1.000000000000000000, 1.224646799147353454E-16 ) ) ;
#117 = CARTESIAN_POINT ( 'NONE',  ( 1.068957861474238863E-30, 2.499999999999997780, 3.061616997868380676E-16 ) ) ;
#118 = ADVANCED_FACE ( 'NONE', ( #138 ), #1, .T. ) ;
#119 = VECTOR ( 'NONE', #145, 1000.000000000000000 ) ;
#120 = AXIS2_PLACEMENT_3D ( 'NONE', #57, #139, #316 ) ;
#121 = ORIENTED_EDGE ( 'NONE', *, *, #280, .F. ) ;
#122 = PERSON_AND_ORGANIZATION ( #311, #210 ) ;
#123 = DIRECTION ( 'NONE',  ( -3.081487911019586123E-31, -1.000000000000000000, -8.673617379884060124E-17 ) ) ;
#124 = ORIENTED_EDGE ( 'NONE', *, *, #214, .T. ) ;
#125 = DIRECTION ( 'NONE',  ( 1.798245827342160317E-15, -0.8571673007021098911, 0.5150380749100582634 ) ) ;
#126 = EDGE_CURVE ( 'NONE', #306, #77, #320, .T. ) ;
#127 = VECTOR ( 'NONE', #73, 999.9999999999998863 ) ;
#128 = AXIS2_PLACEMENT_3D ( 'NONE', #215, #212, #296 ) ;
#129 = VERTEX_POINT ( 'NONE', #60 ) ;
#130 = EDGE_CURVE ( 'NONE', #251, #306, #206, .T. ) ;
#131 = AXIS2_PLACEMENT_3D ( 'NONE', #90, #99, #116 ) ;
#132 = AXIS2_PLACEMENT_3D ( 'NONE', #246, #168, #123 ) ;
#133 = DATE_AND_TIME ( #111, #100 ) ;
#134 = EDGE_CURVE ( 'NONE', #129, #77, #172, .T. ) ;
#135 = ORIENTED_EDGE ( 'NONE', *, *, #134, .F. ) ;
#136 = APPROVAL_ROLE ( '' ) ;
#137 = AXIS2_PLACEMENT_3D ( 'NONE', #38, #144, #160 ) ;
#138 = FACE_OUTER_BOUND ( 'NONE', #107, .T. ) ;
#139 = DIRECTION ( 'NONE',  ( -3.491481338843133355E-15, 1.224646799147353207E-16, -1.000000000000000000 ) ) ;
#140 = ORIENTED_EDGE ( 'NONE', *, *, #294, .F. ) ;
#141 = DIRECTION ( 'NONE',  ( -3.491481338843133355E-15, 1.224646799147353207E-16, -1.000000000000000000 ) ) ;
#142 = ORIENTED_EDGE ( 'NONE', *, *, #280, .T. ) ;
#143 = DIRECTION ( 'NONE',  ( 4.275831445896958607E-31, 1.000000000000000000, 1.224646799147353207E-16 ) ) ;
#144 = DIRECTION ( 'NONE',  ( -3.491481338843133355E-15, 1.224646799147353207E-16, -1.000000000000000000 ) ) ;
#145 = DIRECTION ( 'NONE',  ( -3.491481338843133355E-15, 1.224646799147353207E-16, -1.000000000000000000 ) ) ;
#146 = DATE_AND_TIME ( #98, #276 ) ;
#147 = AXIS2_PLACEMENT_3D ( 'NONE', #301, #326, #295 ) ;
#148 = LOCAL_TIME ( 9, 21, 51.00000000000000000, #2 ) ;
#149 = PRODUCT_DEFINITION ( 'UNKNOWN', '', #261, #290 ) ;
#150 = VERTEX_POINT ( 'NONE', #33 ) ;
#151 = CARTESIAN_POINT ( 'NONE',  ( 2.156938209024337087E-13, -1.900000000000006573, 62.00000000000000000 ) ) ;
#152 = AXIS2_PLACEMENT_3D ( 'NONE', #183, #312, #285 ) ;
#153 = AXIS2_PLACEMENT_3D ( 'NONE', #202, #283, #48 ) ;
#154 = PERSON_AND_ORGANIZATION ( #311, #210 ) ;
#155 = APPLICATION_CONTEXT ( 'configuration controlled 3d designs of mechanical parts and assemblies' ) ;
#156 = ORIENTED_EDGE ( 'NONE', *, *, #333, .T. ) ;
#157 = FACE_OUTER_BOUND ( 'NONE', #199, .T. ) ;
#158 = CARTESIAN_POINT ( 'NONE',  ( 3.061616997868369829E-16, -2.499999999999997780, -3.061616997868390537E-16 ) ) ;
#159 = ADVANCED_FACE ( 'NONE', ( #64 ), #298, .T. ) ;
#160 = DIRECTION ( 'NONE',  ( 0.0000000000000000000, 1.000000000000000000, 0.0000000000000000000 ) ) ;
#161 = ORIENTED_EDGE ( 'NONE', *, *, #56, .F. ) ;
#162 = AXIS2_PLACEMENT_3D ( 'NONE', #256, #37, #322 ) ;
#163 = CARTESIAN_POINT ( 'NONE',  ( 2.164718430082742680E-13, 1.424771793528752685E-32, 62.00000000000000000 ) ) ;
#164 = DIRECTION ( 'NONE',  ( -3.491481338843133355E-15, 1.224646799147353207E-16, -1.000000000000000000 ) ) ;
#165 = CARTESIAN_POINT ( 'NONE',  ( 5.550895796238031501E-15, 2.499999999999992895, 1.502151547568913115 ) ) ;
#166 = APPROVAL_PERSON_ORGANIZATION ( #88, #71, #262 ) ;
#167 = CC_DESIGN_PERSON_AND_ORGANIZATION_ASSIGNMENT ( #45, #54, ( #44 ) ) ;
#168 = DIRECTION ( 'NONE',  ( 3.491481338843133355E-15, -1.224646799147353207E-16, 1.000000000000000000 ) ) ;
#169 = FACE_OUTER_BOUND ( 'NONE', #15, .T. ) ;
#170 = EDGE_LOOP ( 'NONE', ( #80, #310, #47 ) ) ;
#171 = DIRECTION ( 'NONE',  ( -3.491481338843133355E-15, 1.224646799147353207E-16, -1.000000000000000000 ) ) ;
#172 = CIRCLE ( 'NONE', #68, 2.499999999999995115 ) ;
#173 = APPROVAL_PERSON_ORGANIZATION ( #122, #109, #313 ) ;
#174 = ADVANCED_FACE ( 'NONE', ( #67 ), #194, .F. ) ;
#175 = MANIFOLD_SOLID_BREP ( 'Corps-Déplacer/Copier1[2]', #11 ) ;
#176 = CC_DESIGN_DATE_AND_TIME_ASSIGNMENT ( #133, #228, ( #149 ) ) ;
#177 = VECTOR ( 'NONE', #14, 1000.000000000000000 ) ;
#178 = CONICAL_SURFACE ( 'NONE', #128, 2.499999999999992895, 1.029744258676649649 ) ;
#179 = APPROVAL_DATE_TIME ( #309, #302 ) ;
#180 = VERTEX_POINT ( 'NONE', #165 ) ;
#181 = APPROVAL_STATUS ( 'not_yet_approved' ) ;
#182 = EDGE_CURVE ( 'NONE', #257, #306, #211, .T. ) ;
#183 = CARTESIAN_POINT ( 'NONE',  ( 6.982962677686266711E-14, -2.449293598294706513E-15, 20.00000000000000000 ) ) ;
#184 = DATE_AND_TIME ( #258, #321 ) ;
#185 = ORIENTED_EDGE ( 'NONE', *, *, #126, .T. ) ;
#186 = DIRECTION ( 'NONE',  ( 4.275831445896959482E-31, 1.000000000000000000, 1.224646799147353454E-16 ) ) ;
#187 = ORIENTED_EDGE ( 'NONE', *, *, #115, .F. ) ;
#188 = DIRECTION ( 'NONE',  ( -3.491481338843133355E-15, 1.224646799147353207E-16, -1.000000000000000000 ) ) ;
#189 = EDGE_CURVE ( 'NONE', #150, #180, #219, .T. ) ;
#190 = LINE ( 'NONE', #216, #58 ) ;
#191 = ORIENTED_EDGE ( 'NONE', *, *, #330, .F. ) ;
#192 = VERTEX_POINT ( 'NONE', #16 ) ;
#193 = DIRECTION ( 'NONE',  ( 1.000000000000000000, 0.0000000000000000000, 0.0000000000000000000 ) ) ;
#194 = PLANE ( 'NONE',  #86 ) ;
#195 = CIRCLE ( 'NONE', #152, 2.499999999999995115 ) ;
#196 = AXIS2_PLACEMENT_3D ( 'NONE', #25, #49, #208 ) ;
#197 = EDGE_LOOP ( 'NONE', ( #240, #61, #32, #191 ) ) ;
#198 = ORIENTED_EDGE ( 'NONE', *, *, #130, .F. ) ;
#199 = EDGE_LOOP ( 'NONE', ( #281, #217, #198, #200 ) ) ;
#200 = ORIENTED_EDGE ( 'NONE', *, *, #222, .F. ) ;
#201 = EDGE_CURVE ( 'NONE', #180, #150, #18, .T. ) ;
#202 = CARTESIAN_POINT ( 'NONE',  ( 2.164718430082742680E-13, -7.592810154713590230E-15, 62.00000000000000000 ) ) ;
#203 = VECTOR ( 'NONE', #70, 1000.000000000000000 ) ;
#204 = CARTESIAN_POINT ( 'NONE',  ( 0.0000000000000000000, 0.0000000000000000000, 0.0000000000000000000 ) ) ;
#205 = CC_DESIGN_DATE_AND_TIME_ASSIGNMENT ( #146, #72, ( #103 ) ) ;
#206 = CIRCLE ( 'NONE', #162, 2.500000000000000000 ) ;
#207 = APPROVAL_DATE_TIME ( #234, #71 ) ;
#208 = DIRECTION ( 'NONE',  ( 0.0000000000000000000, 1.000000000000000000, 0.0000000000000000000 ) ) ;
#209 = CARTESIAN_POINT ( 'NONE',  ( 0.0000000000000000000, 0.0000000000000000000, 0.0000000000000000000 ) ) ;
#210 = ORGANIZATION ( 'UNSPECIFIED', 'UNSPECIFIED', '' ) ;
#211 = LINE ( 'NONE', #244, #177 ) ;
#212 = DIRECTION ( 'NONE',  ( 3.491481338843133355E-15, -1.224646799147353207E-16, 1.000000000000000000 ) ) ;
#213 = CARTESIAN_POINT ( 'NONE',  ( 5.244734096451192841E-15, -1.839605084564512173E-16, 1.502151547568912893 ) ) ;
#214 = EDGE_CURVE ( 'NONE', #251, #129, #97, .T. ) ;
#215 = CARTESIAN_POINT ( 'NONE',  ( 5.244734096451192841E-15, -1.839605084564512173E-16, 1.502151547568912893 ) ) ;
#216 = CARTESIAN_POINT ( 'NONE',  ( 2.164718430082742680E-13, 1.899999999999991251, 62.00000000000000000 ) ) ;
#217 = ORIENTED_EDGE ( 'NONE', *, *, #182, .T. ) ;
#218 = FACE_OUTER_BOUND ( 'NONE', #170, .T. ) ;
#219 = CIRCLE ( 'NONE', #260, 2.499999999999992895 ) ;
#220 = AXIS2_PLACEMENT_3D ( 'NONE', #30, #235, #8 ) ;
#221 = PERSON_AND_ORGANIZATION_ROLE ( 'design_supplier' ) ;
#222 = EDGE_CURVE ( 'NONE', #277, #251, #190, .T. ) ;
#223 = ORIENTED_EDGE ( 'NONE', *, *, #23, .F. ) ;
#224 = CONICAL_SURFACE ( 'NONE', #278, 1.899999999999999023, 0.7853981633974465026 ) ;
#225 = VECTOR ( 'NONE', #125, 1000.000000000000000 ) ;
#226 = CONICAL_SURFACE ( 'NONE', #120, 1.899999999999999023, 0.7853981633974465026 ) ;
#227 = ADVANCED_FACE ( 'NONE', ( #169 ), #76, .T. ) ;
#228 = DATE_TIME_ROLE ( 'creation_date' ) ;
#229 = DIRECTION ( 'NONE',  ( 3.491481338843133355E-15, -1.224646799147353207E-16, 1.000000000000000000 ) ) ;
#230 = EDGE_LOOP ( 'NONE', ( #289, #142, #62, #92 ) ) ;
#231 = AXIS2_PLACEMENT_3D ( 'NONE', #243, #39, #193 ) ;
#232 = PERSON_AND_ORGANIZATION ( #311, #210 ) ;
#233 = DIRECTION ( 'NONE',  ( 4.275831445896959482E-31, 1.000000000000000000, 1.224646799147353454E-16 ) ) ;
#234 = DATE_AND_TIME ( #337, #3 ) ;
#235 = DIRECTION ( 'NONE',  ( -3.491481338843133355E-15, 1.224646799147353207E-16, -1.000000000000000000 ) ) ;
#236 = ORIENTED_EDGE ( 'NONE', *, *, #333, .F. ) ;
#237 = AXIS2_PLACEMENT_3D ( 'NONE', #204, #29, #186 ) ;
#238 = CC_DESIGN_APPROVAL ( #302, ( #149 ) ) ;
#239 = DIRECTION ( 'NONE',  ( -3.491481338843133355E-15, 1.224646799147353207E-16, -1.000000000000000000 ) ) ;
#240 = ORIENTED_EDGE ( 'NONE', *, *, #182, .F. ) ;
#241 = ADVANCED_FACE ( 'NONE', ( #270 ), #224, .T. ) ;
#242 = PERSON_AND_ORGANIZATION_ROLE ( 'classification_officer' ) ;
#243 = CARTESIAN_POINT ( 'NONE',  ( 0.0000000000000000000, 0.0000000000000000000, 0.0000000000000000000 ) ) ;
#244 = CARTESIAN_POINT ( 'NONE',  ( 2.167045259001122673E-13, -1.900000000000006573, 62.00000000000000000 ) ) ;
#245 = CARTESIAN_POINT ( 'NONE',  ( 6.982962677686266711E-14, 2.499999999999992895, 20.00000000000000000 ) ) ;
#246 = CARTESIAN_POINT ( 'NONE',  ( 5.244734096451192841E-15, -1.839605084564512173E-16, 1.502151547568912893 ) ) ;
#247 = CARTESIAN_POINT ( 'NONE',  ( 5.244734096451192053E-15, -2.499999999999992895, 1.502151547568912671 ) ) ;
#248 = EDGE_CURVE ( 'NONE', #277, #257, #41, .T. ) ;
#249 = AXIS2_PLACEMENT_3D ( 'NONE', #291, #4, #59 ) ;
#250 = LINE ( 'NONE', #105, #299 ) ;
#251 = VERTEX_POINT ( 'NONE', #307 ) ;
#252 = APPLICATION_PROTOCOL_DEFINITION ( 'international standard', 'config_control_design', 1994, #155 ) ;
#253 = FACE_OUTER_BOUND ( 'NONE', #17, .T. ) ;
#254 = ORIENTED_EDGE ( 'NONE', *, *, #134, .T. ) ;
#255 = APPROVAL_DATE_TIME ( #184, #109 ) ;
#256 = CARTESIAN_POINT ( 'NONE',  ( 2.143769542049683754E-13, -7.519331346764748510E-15, 61.39999999999999858 ) ) ;
#257 = VERTEX_POINT ( 'NONE', #151 ) ;
#258 = CALENDAR_DATE ( 2021, 3, 9 ) ;
#259 = CYLINDRICAL_SURFACE ( 'NONE', #81, 2.499999999999993783 ) ;
#260 = AXIS2_PLACEMENT_3D ( 'NONE', #213, #188, #324 ) ;
#261 = PRODUCT_DEFINITION_FORMATION_WITH_SPECIFIED_SOURCE ( 'ANY', '', #44, .NOT_KNOWN. ) ;
#262 = APPROVAL_ROLE ( '' ) ;
#263 = DIRECTION ( 'NONE',  ( -3.491481338843133355E-15, 1.224646799147353207E-16, -1.000000000000000000 ) ) ;
#264 = ORIENTED_EDGE ( 'NONE', *, *, #50, .T. ) ;
#265 = CARTESIAN_POINT ( 'NONE',  ( 1.424094521907022329E-13, -2.500000000000007550, 61.39999999999999858 ) ) ;
#266 = ORIENTED_EDGE ( 'NONE', *, *, #330, .T. ) ;
#267 = DIRECTION ( 'NONE',  ( 0.0000000000000000000, 1.000000000000000000, 0.0000000000000000000 ) ) ;
#268 = CC_DESIGN_PERSON_AND_ORGANIZATION_ASSIGNMENT ( #154, #5, ( #149 ) ) ;
#269 = DIRECTION ( 'NONE',  ( -2.468850131082269682E-15, 0.7071067811865463515, -0.7071067811865487940 ) ) ;
#270 = FACE_OUTER_BOUND ( 'NONE', #197, .T. ) ;
#271 = LINE ( 'NONE', #40, #119 ) ;
#272 = ADVANCED_FACE ( 'NONE', ( #79 ), #178, .T. ) ;
#273 = COORDINATED_UNIVERSAL_TIME_OFFSET ( 1, 0, .AHEAD. ) ;
#274 = DIRECTION ( 'NONE',  ( 0.0000000000000000000, 1.000000000000000000, 0.0000000000000000000 ) ) ;
#275 = AXIS2_PLACEMENT_3D ( 'NONE', #96, #323, #13 ) ;
#276 = LOCAL_TIME ( 9, 21, 51.00000000000000000, #273 ) ;
#277 = VERTEX_POINT ( 'NONE', #93 ) ;
#278 = AXIS2_PLACEMENT_3D ( 'NONE', #303, #164, #334 ) ;
#279 = MANIFOLD_SOLID_BREP ( 'Corps-Déplacer/Copier1[1]', #74 ) ;
#280 = EDGE_CURVE ( 'NONE', #192, #28, #12, .T. ) ;
#281 = ORIENTED_EDGE ( 'NONE', *, *, #248, .T. ) ;
#282 = CC_DESIGN_SECURITY_CLASSIFICATION ( #103, ( #261 ) ) ;
#283 = DIRECTION ( 'NONE',  ( -3.491481338843133355E-15, 1.224646799147353207E-16, -1.000000000000000000 ) ) ;
#284 = COORDINATED_UNIVERSAL_TIME_OFFSET ( 1, 0, .AHEAD. ) ;
#285 = DIRECTION ( 'NONE',  ( 0.0000000000000000000, 1.000000000000000000, 0.0000000000000000000 ) ) ;
#286 = ADVANCED_FACE ( 'NONE', ( #157 ), #226, .T. ) ;
#287 = UNCERTAINTY_MEASURE_WITH_UNIT (LENGTH_MEASURE( 1.000000000000000082E-05 ), #63, 'distance_accuracy_value', 'NONE');
#288 = ORIENTED_EDGE ( 'NONE', *, *, #214, .F. ) ;
#289 = ORIENTED_EDGE ( 'NONE', *, *, #78, .F. ) ;
#290 = DESIGN_CONTEXT ( 'detailed design', #155, 'design' ) ;
#291 = CARTESIAN_POINT ( 'NONE',  ( 6.982962677686266711E-14, 1.874699728327314620E-32, 20.00000000000000000 ) ) ;
#292 = DIRECTION ( 'NONE',  ( -3.491481338843133355E-15, 1.224646799147353207E-16, -1.000000000000000000 ) ) ;
#293 = PERSON_AND_ORGANIZATION ( #311, #210 ) ;
#294 = EDGE_CURVE ( 'NONE', #257, #277, #328, .T. ) ;
#295 = DIRECTION ( 'NONE',  ( 3.081487911019586123E-31, 1.000000000000000000, 8.673617379884060124E-17 ) ) ;
#296 = DIRECTION ( 'NONE',  ( -3.081487911019586123E-31, -1.000000000000000000, -8.673617379884060124E-17 ) ) ;
#297 =( NAMED_UNIT ( * ) SI_UNIT ( $, .STERADIAN. ) SOLID_ANGLE_UNIT ( ) );
#298 = CYLINDRICAL_SURFACE ( 'NONE', #131, 2.499999999999993783 ) ;
#299 = VECTOR ( 'NONE', #46, 1000.000000000000000 ) ;
#300 = CIRCLE ( 'NONE', #220, 2.500000000000000000 ) ;
#301 = CARTESIAN_POINT ( 'NONE',  ( 5.244734096451192841E-15, -1.839605084564512173E-16, 1.502151547568912893 ) ) ;
#302 = APPROVAL ( #83, 'UNSPECIFIED' ) ;
#303 = CARTESIAN_POINT ( 'NONE',  ( 2.164718430082742680E-13, -7.592810154713590230E-15, 62.00000000000000000 ) ) ;
#304 = CALENDAR_DATE ( 2021, 3, 9 ) ;
#305 = ADVANCED_FACE ( 'NONE', ( #253 ), #314, .F. ) ;
#306 = VERTEX_POINT ( 'NONE', #265 ) ;
#307 = CARTESIAN_POINT ( 'NONE',  ( 2.143769542049683754E-13, 2.499999999999992895, 61.39999999999999858 ) ) ;
#308 = CC_DESIGN_PERSON_AND_ORGANIZATION_ASSIGNMENT ( #36, #242, ( #103 ) ) ;
#309 = DATE_AND_TIME ( #304, #148 ) ;
#310 = ORIENTED_EDGE ( 'NONE', *, *, #56, .T. ) ;
#311 = PERSON ( 'UNSPECIFIED', 'UNSPECIFIED', 'UNSPECIFIED', ('UNSPECIFIED'), ('UNSPECIFIED'), ('UNSPECIFIED') ) ;
#312 = DIRECTION ( 'NONE',  ( -3.491481338843133355E-15, 1.224646799147353207E-16, -1.000000000000000000 ) ) ;
#313 = APPROVAL_ROLE ( '' ) ;
#314 = PLANE ( 'NONE',  #249 ) ;
#315 = CONICAL_SURFACE ( 'NONE', #132, 2.499999999999992895, 1.029744258676649649 ) ;
#316 = DIRECTION ( 'NONE',  ( 0.0000000000000000000, 1.000000000000000000, 0.0000000000000000000 ) ) ;
#317 = ORIENTED_EDGE ( 'NONE', *, *, #78, .T. ) ;
#318 = CYLINDRICAL_SURFACE ( 'NONE', #237, 2.499999999999997780 ) ;
#319 = APPLICATION_CONTEXT ( 'configuration controlled 3d designs of mechanical parts and assemblies' ) ;
#320 = LINE ( 'NONE', #158, #20 ) ;
#321 = LOCAL_TIME ( 9, 21, 51.00000000000000000, #51 ) ;
#322 = DIRECTION ( 'NONE',  ( 0.0000000000000000000, 1.000000000000000000, 0.0000000000000000000 ) ) ;
#323 = DIRECTION ( 'NONE',  ( -3.491481338843133355E-15, 1.224646799147353207E-16, -1.000000000000000000 ) ) ;
#324 = DIRECTION ( 'NONE',  ( 3.081487911019586123E-31, 1.000000000000000000, 8.673617379884060124E-17 ) ) ;
#325 = CC_DESIGN_PERSON_AND_ORGANIZATION_ASSIGNMENT ( #232, #221, ( #261 ) ) ;
#326 = DIRECTION ( 'NONE',  ( -3.491481338843133355E-15, 1.224646799147353207E-16, -1.000000000000000000 ) ) ;
#327 = EDGE_LOOP ( 'NONE', ( #161, #264, #10 ) ) ;
#328 = CIRCLE ( 'NONE', #196, 1.899999999999999023 ) ;
#329 = PRODUCT_DEFINITION_SHAPE ( 'NONE', 'NONE',  #149 ) ;
#330 = EDGE_CURVE ( 'NONE', #306, #251, #300, .T. ) ;
#331 = VERTEX_POINT ( 'NONE', #112 ) ;
#332 = LINE ( 'NONE', #104, #127 ) ;
#333 = EDGE_CURVE ( 'NONE', #77, #129, #106, .T. ) ;
#334 = DIRECTION ( 'NONE',  ( 0.0000000000000000000, 1.000000000000000000, 0.0000000000000000000 ) ) ;
#335 = ADVANCED_BREP_SHAPE_REPRESENTATION ( '29758', ( #279, #175, #231 ), #75 ) ;
#336 = ADVANCED_FACE ( 'NONE', ( #218 ), #315, .T. ) ;
#337 = CALENDAR_DATE ( 2021, 3, 9 ) ;
ENDSEC;
END-ISO-10303-21;
