ISO-10303-21;
HEADER;
FILE_DESCRIPTION (( 'STEP AP203' ),
    '1' );
FILE_NAME ('29756.step',
    '2021-09-03T07:21:50',
    ( '' ),
    ( '' ),
    'SwSTEP 2.0',
    'SolidWorks 2019',
    '' );
FILE_SCHEMA (( 'CONFIG_CONTROL_DESIGN' ));
ENDSEC;

DATA;
#1 = ORIENTED_EDGE ( 'NONE', *, *, #199, .F. ) ;
#2 = CONICAL_SURFACE ( 'NONE', #49, 1.899999999999999023, 0.7853981633974479459 ) ;
#3 = FACE_OUTER_BOUND ( 'NONE', #212, .T. ) ;
#4 = ORIENTED_EDGE ( 'NONE', *, *, #117, .T. ) ;
#5 = DIRECTION ( 'NONE',  ( 0.0000000000000000000, 1.000000000000000000, 0.0000000000000000000 ) ) ;
#6 = EDGE_LOOP ( 'NONE', ( #136, #191 ) ) ;
#7 =( NAMED_UNIT ( * ) SI_UNIT ( $, .STERADIAN. ) SOLID_ANGLE_UNIT ( ) );
#8 = CARTESIAN_POINT ( 'NONE',  ( 6.982962677686266711E-14, 1.799711739194220919E-32, 20.00000000000000000 ) ) ;
#9 = ORIENTED_EDGE ( 'NONE', *, *, #199, .T. ) ;
#10 = PRODUCT ( '29756', '29756', '', ( #286 ) ) ;
#11 = CALENDAR_DATE ( 2021, 3, 9 ) ;
#12 = DIRECTION ( 'NONE',  ( 4.275831445896958607E-31, 1.000000000000000000, 1.224646799147353454E-16 ) ) ;
#13 = VERTEX_POINT ( 'NONE', #167 ) ;
#14 = PRODUCT_DEFINITION ( 'UNKNOWN', '', #280, #189 ) ;
#15 = AXIS2_PLACEMENT_3D ( 'NONE', #262, #31, #5 ) ;
#16 = COORDINATED_UNIVERSAL_TIME_OFFSET ( 1, 0, .AHEAD. ) ;
#17 = AXIS2_PLACEMENT_3D ( 'NONE', #8, #54, #161 ) ;
#18 = DIRECTION ( 'NONE',  ( -2.382254525458717469E-15, -0.7071067811865471286, -0.7071067811865479058 ) ) ;
#19 = ORIENTED_EDGE ( 'NONE', *, *, #334, .T. ) ;
#20 =( LENGTH_UNIT ( ) NAMED_UNIT ( * ) SI_UNIT ( .MILLI., .METRE. ) );
#21 = CC_DESIGN_DATE_AND_TIME_ASSIGNMENT ( #56, #157, ( #149 ) ) ;
#22 = CARTESIAN_POINT ( 'NONE',  ( 2.164718430082742680E-13, -7.592810154713590230E-15, 62.00000000000000000 ) ) ;
#23 = CARTESIAN_POINT ( 'NONE',  ( 0.0000000000000000000, 0.0000000000000000000, 0.0000000000000000000 ) ) ;
#24 = LOCAL_TIME ( 9, 21, 50.00000000000000000, #16 ) ;
#25 = EDGE_LOOP ( 'NONE', ( #311, #30, #72 ) ) ;
#26 = DIRECTION ( 'NONE',  ( 3.209883240645404620E-31, 1.000000000000000000, 9.035018104045902742E-17 ) ) ;
#27 = DIRECTION ( 'NONE',  ( -3.491481338843133355E-15, 1.224646799147353207E-16, -1.000000000000000000 ) ) ;
#28 = DIRECTION ( 'NONE',  ( -3.491481338843133355E-15, 1.224646799147353207E-16, -1.000000000000000000 ) ) ;
#29 = DIRECTION ( 'NONE',  ( -3.491481338843133355E-15, 1.224646799147353207E-16, -1.000000000000000000 ) ) ;
#30 = ORIENTED_EDGE ( 'NONE', *, *, #35, .T. ) ;
#31 = DIRECTION ( 'NONE',  ( -3.491481338843133355E-15, 1.224646799147353207E-16, -1.000000000000000000 ) ) ;
#32 = CYLINDRICAL_SURFACE ( 'NONE', #206, 2.399999999999992806 ) ;
#33 = ORIENTED_EDGE ( 'NONE', *, *, #98, .F. ) ;
#34 = DATE_TIME_ROLE ( 'creation_date' ) ;
#35 = EDGE_CURVE ( 'NONE', #158, #268, #65, .T. ) ;
#36 = DIRECTION ( 'NONE',  ( -3.491481338843133355E-15, 1.224646799147353207E-16, -1.000000000000000000 ) ) ;
#37 = CC_DESIGN_PERSON_AND_ORGANIZATION_ASSIGNMENT ( #39, #147, ( #280 ) ) ;
#38 = CARTESIAN_POINT ( 'NONE',  ( 5.034944732593142446E-15, -1.766020881181930858E-16, 1.442065485666155666 ) ) ;
#39 = PERSON_AND_ORGANIZATION ( #274, #105 ) ;
#40 = AXIS2_PLACEMENT_3D ( 'NONE', #251, #46, #106 ) ;
#41 = CIRCLE ( 'NONE', #40, 2.399999999999994138 ) ;
#42 = CONICAL_SURFACE ( 'NONE', #313, 2.399999999999991473, 1.029744258676649649 ) ;
#43 = APPROVAL_PERSON_ORGANIZATION ( #48, #183, #336 ) ;
#44 = EDGE_CURVE ( 'NONE', #101, #268, #323, .T. ) ;
#45 = ORIENTED_EDGE ( 'NONE', *, *, #322, .F. ) ;
#46 = DIRECTION ( 'NONE',  ( -3.491481338843133355E-15, 1.224646799147353207E-16, -1.000000000000000000 ) ) ;
#47 = EDGE_CURVE ( 'NONE', #268, #86, #197, .T. ) ;
#48 = PERSON_AND_ORGANIZATION ( #274, #105 ) ;
#49 = AXIS2_PLACEMENT_3D ( 'NONE', #22, #227, #207 ) ;
#50 = LOCAL_TIME ( 9, 21, 50.00000000000000000, #194 ) ;
#51 = CYLINDRICAL_SURFACE ( 'NONE', #95, 2.399999999999996803 ) ;
#52 = ORIENTED_EDGE ( 'NONE', *, *, #247, .F. ) ;
#53 = CARTESIAN_POINT ( 'NONE',  ( 0.0000000000000000000, 0.0000000000000000000, 0.0000000000000000000 ) ) ;
#54 = DIRECTION ( 'NONE',  ( 3.491481338843133355E-15, -1.224646799147353207E-16, 1.000000000000000000 ) ) ;
#55 = CONICAL_SURFACE ( 'NONE', #107, 2.399999999999991473, 1.029744258676649649 ) ;
#56 = DATE_AND_TIME ( #185, #100 ) ;
#57 = ORIENTED_EDGE ( 'NONE', *, *, #151, .T. ) ;
#58 = CARTESIAN_POINT ( 'NONE',  ( 2.164718430082742680E-13, 1.424771793528752685E-32, 62.00000000000000000 ) ) ;
#59 = CARTESIAN_POINT ( 'NONE',  ( 6.982962677686266711E-14, -2.449293598294706513E-15, 20.00000000000000000 ) ) ;
#60 = ORIENTED_EDGE ( 'NONE', *, *, #102, .T. ) ;
#61 = CARTESIAN_POINT ( 'NONE',  ( 0.0000000000000000000, 0.0000000000000000000, 0.0000000000000000000 ) ) ;
#62 = ORIENTED_EDGE ( 'NONE', *, *, #216, .T. ) ;
#63 = PERSON_AND_ORGANIZATION_ROLE ( 'creator' ) ;
#64 = CIRCLE ( 'NONE', #248, 2.399999999999994138 ) ;
#65 = LINE ( 'NONE', #213, #113 ) ;
#66 = DIRECTION ( 'NONE',  ( 3.491481338843133355E-15, -1.224646799147353207E-16, 1.000000000000000000 ) ) ;
#67 = FACE_OUTER_BOUND ( 'NONE', #228, .T. ) ;
#68 = COORDINATED_UNIVERSAL_TIME_OFFSET ( 1, 0, .AHEAD. ) ;
#69 = CARTESIAN_POINT ( 'NONE',  ( 1.026199547015268559E-30, 2.399999999999996803, 2.939152317953643654E-16 ) ) ;
#70 =( GEOMETRIC_REPRESENTATION_CONTEXT ( 3 ) GLOBAL_UNCERTAINTY_ASSIGNED_CONTEXT ( ( #290 ) ) GLOBAL_UNIT_ASSIGNED_CONTEXT ( ( #20, #137, #7 ) ) REPRESENTATION_CONTEXT ( 'NONE', 'WORKASPACE' ) );
#71 = PRODUCT_DEFINITION_SHAPE ( 'NONE', 'NONE',  #14 ) ;
#72 = ORIENTED_EDGE ( 'NONE', *, *, #47, .T. ) ;
#73 = CIRCLE ( 'NONE', #82, 2.399999999999991473 ) ;
#74 = LINE ( 'NONE', #281, #156 ) ;
#75 = CC_DESIGN_PERSON_AND_ORGANIZATION_ASSIGNMENT ( #164, #111, ( #10 ) ) ;
#76 = DIRECTION ( 'NONE',  ( -2.468850131082266527E-15, 0.7071067811865473507, -0.7071067811865477948 ) ) ;
#77 = DIRECTION ( 'NONE',  ( -3.491481338843133355E-15, 1.224646799147353207E-16, -1.000000000000000000 ) ) ;
#78 = SHAPE_DEFINITION_REPRESENTATION ( #71, #171 ) ;
#79 = CIRCLE ( 'NONE', #259, 2.399999999999999023 ) ;
#80 = ORIENTED_EDGE ( 'NONE', *, *, #44, .F. ) ;
#81 = COORDINATED_UNIVERSAL_TIME_OFFSET ( 1, 0, .AHEAD. ) ;
#82 = AXIS2_PLACEMENT_3D ( 'NONE', #130, #295, #180 ) ;
#83 = FACE_OUTER_BOUND ( 'NONE', #325, .T. ) ;
#84 = LOCAL_TIME ( 9, 21, 50.00000000000000000, #81 ) ;
#85 = CARTESIAN_POINT ( 'NONE',  ( 0.0000000000000000000, 0.0000000000000000000, 0.0000000000000000000 ) ) ;
#86 = VERTEX_POINT ( 'NONE', #233 ) ;
#87 = LINE ( 'NONE', #267, #327 ) ;
#88 = DIRECTION ( 'NONE',  ( -3.491481338843133355E-15, 1.224646799147353207E-16, -1.000000000000000000 ) ) ;
#89 = PERSON_AND_ORGANIZATION ( #274, #105 ) ;
#90 = DIRECTION ( 'NONE',  ( -3.491481338843133355E-15, 1.224646799147353207E-16, -1.000000000000000000 ) ) ;
#91 = APPROVAL ( #145, 'UNSPECIFIED' ) ;
#92 = CARTESIAN_POINT ( 'NONE',  ( 0.0000000000000000000, 0.0000000000000000000, 0.0000000000000000000 ) ) ;
#93 = ORIENTED_EDGE ( 'NONE', *, *, #258, .T. ) ;
#94 = FACE_OUTER_BOUND ( 'NONE', #6, .T. ) ;
#95 = AXIS2_PLACEMENT_3D ( 'NONE', #182, #255, #200 ) ;
#96 = CC_DESIGN_SECURITY_CLASSIFICATION ( #149, ( #280 ) ) ;
#97 = DIRECTION ( 'NONE',  ( 0.0000000000000000000, 1.000000000000000000, 0.0000000000000000000 ) ) ;
#98 = EDGE_CURVE ( 'NONE', #209, #86, #87, .T. ) ;
#99 = LINE ( 'NONE', #69, #154 ) ;
#100 = LOCAL_TIME ( 9, 21, 50.00000000000000000, #135 ) ;
#101 = VERTEX_POINT ( 'NONE', #271 ) ;
#102 = EDGE_CURVE ( 'NONE', #158, #86, #291, .T. ) ;
#103 = ADVANCED_FACE ( 'NONE', ( #3 ), #192, .T. ) ;
#104 = ORIENTED_EDGE ( 'NONE', *, *, #334, .F. ) ;
#105 = ORGANIZATION ( 'UNSPECIFIED', 'UNSPECIFIED', '' ) ;
#106 = DIRECTION ( 'NONE',  ( 0.0000000000000000000, 1.000000000000000000, 0.0000000000000000000 ) ) ;
#107 = AXIS2_PLACEMENT_3D ( 'NONE', #38, #306, #175 ) ;
#108 = ADVANCED_FACE ( 'NONE', ( #83 ), #283, .T. ) ;
#109 = DIRECTION ( 'NONE',  ( 1.000000000000000000, 0.0000000000000000000, 0.0000000000000000000 ) ) ;
#110 = PRODUCT_RELATED_PRODUCT_CATEGORY ( 'detail', '', ( #10 ) ) ;
#111 = PERSON_AND_ORGANIZATION_ROLE ( 'design_owner' ) ;
#112 = VERTEX_POINT ( 'NONE', #165 ) ;
#113 = VECTOR ( 'NONE', #172, 999.9999999999998863 ) ;
#114 = DIRECTION ( 'NONE',  ( -3.491481338843133355E-15, 1.224646799147353207E-16, -1.000000000000000000 ) ) ;
#115 = ORIENTED_EDGE ( 'NONE', *, *, #98, .T. ) ;
#116 = DATE_AND_TIME ( #11, #293 ) ;
#117 = EDGE_CURVE ( 'NONE', #294, #13, #201, .T. ) ;
#118 = EDGE_LOOP ( 'NONE', ( #62, #57, #45, #1 ) ) ;
#119 = CALENDAR_DATE ( 2021, 3, 9 ) ;
#120 = AXIS2_PLACEMENT_3D ( 'NONE', #123, #218, #307 ) ;
#121 = ADVANCED_FACE ( 'NONE', ( #287 ), #236, .T. ) ;
#122 = DIRECTION ( 'NONE',  ( 4.275831445896958607E-31, 1.000000000000000000, 1.224646799147353454E-16 ) ) ;
#123 = CARTESIAN_POINT ( 'NONE',  ( 2.164718430082742680E-13, -7.592810154713590230E-15, 62.00000000000000000 ) ) ;
#124 = EDGE_LOOP ( 'NONE', ( #193, #316 ) ) ;
#125 = AXIS2_PLACEMENT_3D ( 'NONE', #324, #257, #26 ) ;
#126 = LINE ( 'NONE', #153, #128 ) ;
#127 = ADVANCED_FACE ( 'NONE', ( #94 ), #173, .F. ) ;
#128 = VECTOR ( 'NONE', #18, 1000.000000000000000 ) ;
#129 = CC_DESIGN_APPROVAL ( #183, ( #149 ) ) ;
#130 = CARTESIAN_POINT ( 'NONE',  ( 5.034944732593142446E-15, -1.766020881181930858E-16, 1.442065485666155666 ) ) ;
#131 = CARTESIAN_POINT ( 'NONE',  ( 6.982962677686266711E-14, 2.399999999999991473, 20.00000000000000000 ) ) ;
#132 = VECTOR ( 'NONE', #88, 1000.000000000000000 ) ;
#133 = DIRECTION ( 'NONE',  ( 0.0000000000000000000, 0.0000000000000000000, 1.000000000000000000 ) ) ;
#134 = ADVANCED_FACE ( 'NONE', ( #198 ), #42, .T. ) ;
#135 = COORDINATED_UNIVERSAL_TIME_OFFSET ( 1, 0, .AHEAD. ) ;
#136 = ORIENTED_EDGE ( 'NONE', *, *, #322, .T. ) ;
#137 =( NAMED_UNIT ( * ) PLANE_ANGLE_UNIT ( ) SI_UNIT ( $, .RADIAN. ) );
#138 = PLANE ( 'NONE',  #278 ) ;
#139 = ORIENTED_EDGE ( 'NONE', *, *, #159, .F. ) ;
#140 = ADVANCED_FACE ( 'NONE', ( #67 ), #55, .T. ) ;
#141 = AXIS2_PLACEMENT_3D ( 'NONE', #208, #90, #317 ) ;
#142 = CYLINDRICAL_SURFACE ( 'NONE', #225, 2.399999999999992806 ) ;
#143 = DIRECTION ( 'NONE',  ( 3.491481338843133355E-15, -1.224646799147353207E-16, 1.000000000000000000 ) ) ;
#144 = ORIENTED_EDGE ( 'NONE', *, *, #44, .T. ) ;
#145 = APPROVAL_STATUS ( 'not_yet_approved' ) ;
#146 = CARTESIAN_POINT ( 'NONE',  ( 6.982962677686266711E-14, -2.449293598294706513E-15, 20.00000000000000000 ) ) ;
#147 = PERSON_AND_ORGANIZATION_ROLE ( 'design_supplier' ) ;
#148 = CLOSED_SHELL ( 'NONE', ( #166, #134, #140, #315, #121 ) ) ;
#149 = SECURITY_CLASSIFICATION ( '', '', #246 ) ;
#150 = PERSON_AND_ORGANIZATION ( #274, #105 ) ;
#151 = EDGE_CURVE ( 'NONE', #294, #112, #74, .T. ) ;
#152 = APPLICATION_CONTEXT ( 'configuration controlled 3d designs of mechanical parts and assemblies' ) ;
#153 = CARTESIAN_POINT ( 'NONE',  ( 2.167045259001122673E-13, -1.900000000000006573, 62.00000000000000000 ) ) ;
#154 = VECTOR ( 'NONE', #252, 1000.000000000000000 ) ;
#155 = EDGE_CURVE ( 'NONE', #333, #168, #292, .T. ) ;
#156 = VECTOR ( 'NONE', #77, 1000.000000000000000 ) ;
#157 = DATE_TIME_ROLE ( 'classification_date' ) ;
#158 = VERTEX_POINT ( 'NONE', #85 ) ;
#159 = EDGE_CURVE ( 'NONE', #86, #268, #73, .T. ) ;
#160 = ADVANCED_FACE ( 'NONE', ( #284 ), #2, .T. ) ;
#161 = DIRECTION ( 'NONE',  ( -4.275831445896958607E-31, -1.000000000000000000, -1.224646799147353207E-16 ) ) ;
#162 = FACE_OUTER_BOUND ( 'NONE', #296, .T. ) ;
#163 = AXIS2_PLACEMENT_3D ( 'NONE', #304, #66, #272 ) ;
#164 = PERSON_AND_ORGANIZATION ( #274, #105 ) ;
#165 = CARTESIAN_POINT ( 'NONE',  ( 1.425717797896530038E-13, -2.399999999999996803, 20.00000000000000000 ) ) ;
#166 = ADVANCED_FACE ( 'NONE', ( #337 ), #32, .T. ) ;
#167 = CARTESIAN_POINT ( 'NONE',  ( 2.147261023388527077E-13, 2.399999999999991473, 61.50000000000000000 ) ) ;
#168 = VERTEX_POINT ( 'NONE', #240 ) ;
#169 = DATE_AND_TIME ( #214, #24 ) ;
#170 = AXIS2_PLACEMENT_3D ( 'NONE', #231, #234, #260 ) ;
#171 = ADVANCED_BREP_SHAPE_REPRESENTATION ( '29756', ( #277, #282, #276 ), #70 ) ;
#172 = DIRECTION ( 'NONE',  ( 1.903218546456022717E-15, 0.8571673007021097801, 0.5150380749100585964 ) ) ;
#173 = PLANE ( 'NONE',  #163 ) ;
#174 = EDGE_CURVE ( 'NONE', #209, #101, #329, .T. ) ;
#175 = DIRECTION ( 'NONE',  ( -3.209883240645404620E-31, -1.000000000000000000, -9.035018104045902742E-17 ) ) ;
#176 = CLOSED_SHELL ( 'NONE', ( #108, #202, #127, #103, #160, #210 ) ) ;
#177 = APPROVAL_PERSON_ORGANIZATION ( #89, #91, #242 ) ;
#178 = PERSON_AND_ORGANIZATION ( #274, #105 ) ;
#179 = AXIS2_PLACEMENT_3D ( 'NONE', #146, #223, #97 ) ;
#180 = DIRECTION ( 'NONE',  ( 3.209883240645404620E-31, 1.000000000000000000, 9.035018104045902742E-17 ) ) ;
#181 = ORIENTED_EDGE ( 'NONE', *, *, #155, .F. ) ;
#182 = CARTESIAN_POINT ( 'NONE',  ( 0.0000000000000000000, 0.0000000000000000000, 0.0000000000000000000 ) ) ;
#183 = APPROVAL ( #226, 'UNSPECIFIED' ) ;
#184 = APPLICATION_PROTOCOL_DEFINITION ( 'international standard', 'config_control_design', 1994, #152 ) ;
#185 = CALENDAR_DATE ( 2021, 3, 9 ) ;
#186 = ORIENTED_EDGE ( 'NONE', *, *, #174, .T. ) ;
#187 = APPLICATION_CONTEXT ( 'configuration controlled 3d designs of mechanical parts and assemblies' ) ;
#188 = FACE_OUTER_BOUND ( 'NONE', #253, .T. ) ;
#189 = DESIGN_CONTEXT ( 'detailed design', #187, 'design' ) ;
#190 = DIRECTION ( 'NONE',  ( 1.798245827342160317E-15, -0.8571673007021098911, 0.5150380749100582634 ) ) ;
#191 = ORIENTED_EDGE ( 'NONE', *, *, #310, .T. ) ;
#192 = CYLINDRICAL_SURFACE ( 'NONE', #308, 2.399999999999996803 ) ;
#193 = ORIENTED_EDGE ( 'NONE', *, *, #298, .F. ) ;
#194 = COORDINATED_UNIVERSAL_TIME_OFFSET ( 1, 0, .AHEAD. ) ;
#195 = DIRECTION ( 'NONE',  ( 4.275831445896958607E-31, 1.000000000000000000, 1.224646799147353207E-16 ) ) ;
#196 = ORIENTED_EDGE ( 'NONE', *, *, #298, .T. ) ;
#197 = CIRCLE ( 'NONE', #125, 2.399999999999991473 ) ;
#198 = FACE_OUTER_BOUND ( 'NONE', #25, .T. ) ;
#199 = EDGE_CURVE ( 'NONE', #13, #241, #99, .T. ) ;
#200 = DIRECTION ( 'NONE',  ( 4.275831445896957731E-31, 1.000000000000000000, 1.224646799147353207E-16 ) ) ;
#201 = CIRCLE ( 'NONE', #221, 2.399999999999999023 ) ;
#202 = ADVANCED_FACE ( 'NONE', ( #312 ), #51, .T. ) ;
#203 = ORIENTED_EDGE ( 'NONE', *, *, #151, .F. ) ;
#204 = CALENDAR_DATE ( 2021, 3, 9 ) ;
#205 = CC_DESIGN_PERSON_AND_ORGANIZATION_ASSIGNMENT ( #303, #220, ( #280 ) ) ;
#206 = AXIS2_PLACEMENT_3D ( 'NONE', #92, #273, #122 ) ;
#207 = DIRECTION ( 'NONE',  ( 0.0000000000000000000, 1.000000000000000000, 0.0000000000000000000 ) ) ;
#208 = CARTESIAN_POINT ( 'NONE',  ( 2.164718430082742680E-13, -7.592810154713590230E-15, 62.00000000000000000 ) ) ;
#209 = VERTEX_POINT ( 'NONE', #239 ) ;
#210 = ADVANCED_FACE ( 'NONE', ( #188 ), #138, .F. ) ;
#211 = VECTOR ( 'NONE', #190, 1000.000000000000000 ) ;
#212 = EDGE_LOOP ( 'NONE', ( #203, #4, #9, #232 ) ) ;
#213 = CARTESIAN_POINT ( 'NONE',  ( 5.328859964388506959E-15, 2.399999999999991473, 1.442065485666155888 ) ) ;
#214 = CALENDAR_DATE ( 2021, 3, 9 ) ;
#215 = DIRECTION ( 'NONE',  ( -3.491481338843133355E-15, 1.224646799147353207E-16, -1.000000000000000000 ) ) ;
#216 = EDGE_CURVE ( 'NONE', #13, #294, #79, .T. ) ;
#217 = ORIENTED_EDGE ( 'NONE', *, *, #216, .F. ) ;
#218 = DIRECTION ( 'NONE',  ( -3.491481338843133355E-15, 1.224646799147353207E-16, -1.000000000000000000 ) ) ;
#219 = CARTESIAN_POINT ( 'NONE',  ( 2.147261023388527077E-13, -7.531577814756222656E-15, 61.50000000000000000 ) ) ;
#220 = PERSON_AND_ORGANIZATION_ROLE ( 'creator' ) ;
#221 = AXIS2_PLACEMENT_3D ( 'NONE', #219, #28, #326 ) ;
#222 = CC_DESIGN_APPROVAL ( #330, ( #14 ) ) ;
#223 = DIRECTION ( 'NONE',  ( -3.491481338843133355E-15, 1.224646799147353207E-16, -1.000000000000000000 ) ) ;
#224 = CARTESIAN_POINT ( 'NONE',  ( 5.328859964388506959E-15, 2.399999999999991473, 1.442065485666155888 ) ) ;
#225 = AXIS2_PLACEMENT_3D ( 'NONE', #23, #29, #12 ) ;
#226 = APPROVAL_STATUS ( 'not_yet_approved' ) ;
#227 = DIRECTION ( 'NONE',  ( -3.491481338843133355E-15, 1.224646799147353207E-16, -1.000000000000000000 ) ) ;
#228 = EDGE_LOOP ( 'NONE', ( #256, #60, #302 ) ) ;
#229 = CARTESIAN_POINT ( 'NONE',  ( 2.147261023388527077E-13, -7.531577814756222656E-15, 61.50000000000000000 ) ) ;
#230 = APPROVAL_PERSON_ORGANIZATION ( #150, #330, #245 ) ;
#231 = CARTESIAN_POINT ( 'NONE',  ( 2.164718430082742680E-13, -7.592810154713590230E-15, 62.00000000000000000 ) ) ;
#232 = ORIENTED_EDGE ( 'NONE', *, *, #310, .F. ) ;
#233 = CARTESIAN_POINT ( 'NONE',  ( 5.034944732593141657E-15, -2.399999999999991473, 1.442065485666155444 ) ) ;
#234 = DIRECTION ( 'NONE',  ( -3.491481338843133355E-15, 1.224646799147353207E-16, -1.000000000000000000 ) ) ;
#235 = APPROVAL_DATE_TIME ( #263, #183 ) ;
#236 = PLANE ( 'NONE',  #17 ) ;
#237 = ORIENTED_EDGE ( 'NONE', *, *, #47, .F. ) ;
#238 = PERSON_AND_ORGANIZATION ( #274, #105 ) ;
#239 = CARTESIAN_POINT ( 'NONE',  ( 3.772620098652322945E-14, -2.399999999999996803, 20.00000000000000000 ) ) ;
#240 = CARTESIAN_POINT ( 'NONE',  ( 2.158622717353801520E-13, -1.900000000000006573, 62.00000000000000000 ) ) ;
#241 = VERTEX_POINT ( 'NONE', #131 ) ;
#242 = APPROVAL_ROLE ( '' ) ;
#243 = CC_DESIGN_PERSON_AND_ORGANIZATION_ASSIGNMENT ( #178, #331, ( #149 ) ) ;
#244 = DIRECTION ( 'NONE',  ( -3.209883240645404620E-31, -1.000000000000000000, -9.035018104045902742E-17 ) ) ;
#245 = APPROVAL_ROLE ( '' ) ;
#246 = SECURITY_CLASSIFICATION_LEVEL ( 'unclassified' ) ;
#247 = EDGE_CURVE ( 'NONE', #168, #333, #335, .T. ) ;
#248 = AXIS2_PLACEMENT_3D ( 'NONE', #59, #265, #288 ) ;
#249 = EDGE_LOOP ( 'NONE', ( #196, #115, #237, #80 ) ) ;
#250 = CARTESIAN_POINT ( 'NONE',  ( 2.164718430082742680E-13, 1.899999999999991251, 62.00000000000000000 ) ) ;
#251 = CARTESIAN_POINT ( 'NONE',  ( 6.982962677686266711E-14, -2.449293598294706513E-15, 20.00000000000000000 ) ) ;
#252 = DIRECTION ( 'NONE',  ( -3.491481338843133355E-15, 1.224646799147353207E-16, -1.000000000000000000 ) ) ;
#253 = EDGE_LOOP ( 'NONE', ( #181, #52 ) ) ;
#254 = DIRECTION ( 'NONE',  ( 0.0000000000000000000, 1.000000000000000000, 0.0000000000000000000 ) ) ;
#255 = DIRECTION ( 'NONE',  ( -3.491481338843133355E-15, 1.224646799147353207E-16, -1.000000000000000000 ) ) ;
#256 = ORIENTED_EDGE ( 'NONE', *, *, #35, .F. ) ;
#257 = DIRECTION ( 'NONE',  ( -3.491481338843133355E-15, 1.224646799147353207E-16, -1.000000000000000000 ) ) ;
#258 = EDGE_CURVE ( 'NONE', #168, #294, #126, .T. ) ;
#259 = AXIS2_PLACEMENT_3D ( 'NONE', #229, #114, #254 ) ;
#260 = DIRECTION ( 'NONE',  ( 0.0000000000000000000, 1.000000000000000000, 0.0000000000000000000 ) ) ;
#261 = ORIENTED_EDGE ( 'NONE', *, *, #247, .T. ) ;
#262 = CARTESIAN_POINT ( 'NONE',  ( 6.982962677686266711E-14, -2.449293598294706513E-15, 20.00000000000000000 ) ) ;
#263 = DATE_AND_TIME ( #204, #84 ) ;
#264 = CARTESIAN_POINT ( 'NONE',  ( 5.034944732593142446E-15, -1.766020881181930858E-16, 1.442065485666155666 ) ) ;
#265 = DIRECTION ( 'NONE',  ( -3.491481338843133355E-15, 1.224646799147353207E-16, -1.000000000000000000 ) ) ;
#266 = CARTESIAN_POINT ( 'NONE',  ( 1.026199547015266983E-30, 2.399999999999992806, 2.939152317953639217E-16 ) ) ;
#267 = CARTESIAN_POINT ( 'NONE',  ( 2.939152317953628863E-16, -2.399999999999992806, -2.939152317953648585E-16 ) ) ;
#268 = VERTEX_POINT ( 'NONE', #224 ) ;
#269 = CC_DESIGN_PERSON_AND_ORGANIZATION_ASSIGNMENT ( #238, #63, ( #14 ) ) ;
#270 = APPROVAL_DATE_TIME ( #169, #330 ) ;
#271 = CARTESIAN_POINT ( 'NONE',  ( 6.982962677686266711E-14, 2.399999999999991473, 20.00000000000000000 ) ) ;
#272 = DIRECTION ( 'NONE',  ( -4.275831445896958607E-31, -1.000000000000000000, -1.224646799147353207E-16 ) ) ;
#273 = DIRECTION ( 'NONE',  ( -3.491481338843133355E-15, 1.224646799147353207E-16, -1.000000000000000000 ) ) ;
#274 = PERSON ( 'UNSPECIFIED', 'UNSPECIFIED', 'UNSPECIFIED', ('UNSPECIFIED'), ('UNSPECIFIED'), ('UNSPECIFIED') ) ;
#275 = DATE_AND_TIME ( #119, #50 ) ;
#276 = AXIS2_PLACEMENT_3D ( 'NONE', #53, #133, #109 ) ;
#277 = MANIFOLD_SOLID_BREP ( 'Corps-Déplacer/Copier1[1]', #176 ) ;
#278 = AXIS2_PLACEMENT_3D ( 'NONE', #58, #27, #195 ) ;
#279 = LINE ( 'NONE', #309, #320 ) ;
#280 = PRODUCT_DEFINITION_FORMATION_WITH_SPECIFIED_SOURCE ( 'ANY', '', #10, .NOT_KNOWN. ) ;
#281 = CARTESIAN_POINT ( 'NONE',  ( 2.939152317953633794E-16, -2.399999999999996803, -2.939152317953653515E-16 ) ) ;
#282 = MANIFOLD_SOLID_BREP ( 'Corps-Déplacer/Copier1[2]', #148 ) ;
#283 = CONICAL_SURFACE ( 'NONE', #141, 1.899999999999999023, 0.7853981633974479459 ) ;
#284 = FACE_OUTER_BOUND ( 'NONE', #321, .T. ) ;
#285 = ORIENTED_EDGE ( 'NONE', *, *, #155, .T. ) ;
#286 = MECHANICAL_CONTEXT ( 'NONE', #152, 'mechanical' ) ;
#287 = FACE_OUTER_BOUND ( 'NONE', #124, .T. ) ;
#288 = DIRECTION ( 'NONE',  ( 0.0000000000000000000, 1.000000000000000000, 0.0000000000000000000 ) ) ;
#289 = CC_DESIGN_DATE_AND_TIME_ASSIGNMENT ( #116, #34, ( #14 ) ) ;
#290 = UNCERTAINTY_MEASURE_WITH_UNIT (LENGTH_MEASURE( 1.000000000000000082E-05 ), #20, 'distance_accuracy_value', 'NONE');
#291 = LINE ( 'NONE', #319, #211 ) ;
#292 = CIRCLE ( 'NONE', #170, 1.899999999999999023 ) ;
#293 = LOCAL_TIME ( 9, 21, 50.00000000000000000, #68 ) ;
#294 = VERTEX_POINT ( 'NONE', #332 ) ;
#295 = DIRECTION ( 'NONE',  ( -3.491481338843133355E-15, 1.224646799147353207E-16, -1.000000000000000000 ) ) ;
#296 = EDGE_LOOP ( 'NONE', ( #33, #186, #144, #139 ) ) ;
#297 = DIRECTION ( 'NONE',  ( 4.275831445896957731E-31, 1.000000000000000000, 1.224646799147353207E-16 ) ) ;
#298 = EDGE_CURVE ( 'NONE', #101, #209, #64, .T. ) ;
#299 = ORIENTED_EDGE ( 'NONE', *, *, #258, .F. ) ;
#300 = APPROVAL_DATE_TIME ( #275, #91 ) ;
#301 = CIRCLE ( 'NONE', #15, 2.399999999999994138 ) ;
#302 = ORIENTED_EDGE ( 'NONE', *, *, #159, .T. ) ;
#303 = PERSON_AND_ORGANIZATION ( #274, #105 ) ;
#304 = CARTESIAN_POINT ( 'NONE',  ( 6.982962677686266711E-14, 1.799711739194220919E-32, 20.00000000000000000 ) ) ;
#305 = APPROVAL_STATUS ( 'not_yet_approved' ) ;
#306 = DIRECTION ( 'NONE',  ( 3.491481338843133355E-15, -1.224646799147353207E-16, 1.000000000000000000 ) ) ;
#307 = DIRECTION ( 'NONE',  ( 0.0000000000000000000, 1.000000000000000000, 0.0000000000000000000 ) ) ;
#308 = AXIS2_PLACEMENT_3D ( 'NONE', #61, #36, #297 ) ;
#309 = CARTESIAN_POINT ( 'NONE',  ( 2.164718430082742680E-13, 1.899999999999991251, 62.00000000000000000 ) ) ;
#310 = EDGE_CURVE ( 'NONE', #112, #241, #301, .T. ) ;
#311 = ORIENTED_EDGE ( 'NONE', *, *, #102, .F. ) ;
#312 = FACE_OUTER_BOUND ( 'NONE', #118, .T. ) ;
#313 = AXIS2_PLACEMENT_3D ( 'NONE', #264, #143, #244 ) ;
#314 = CC_DESIGN_APPROVAL ( #91, ( #280 ) ) ;
#315 = ADVANCED_FACE ( 'NONE', ( #162 ), #142, .T. ) ;
#316 = ORIENTED_EDGE ( 'NONE', *, *, #174, .F. ) ;
#317 = DIRECTION ( 'NONE',  ( 0.0000000000000000000, 1.000000000000000000, 0.0000000000000000000 ) ) ;
#318 = ORIENTED_EDGE ( 'NONE', *, *, #117, .F. ) ;
#319 = CARTESIAN_POINT ( 'NONE',  ( 5.034944732593141657E-15, -2.399999999999991473, 1.442065485666155444 ) ) ;
#320 = VECTOR ( 'NONE', #76, 999.9999999999998863 ) ;
#321 = EDGE_LOOP ( 'NONE', ( #299, #261, #19, #318 ) ) ;
#322 = EDGE_CURVE ( 'NONE', #241, #112, #41, .T. ) ;
#323 = LINE ( 'NONE', #266, #132 ) ;
#324 = CARTESIAN_POINT ( 'NONE',  ( 5.034944732593142446E-15, -1.766020881181930858E-16, 1.442065485666155666 ) ) ;
#325 = EDGE_LOOP ( 'NONE', ( #285, #93, #217, #104 ) ) ;
#326 = DIRECTION ( 'NONE',  ( 0.0000000000000000000, 1.000000000000000000, 0.0000000000000000000 ) ) ;
#327 = VECTOR ( 'NONE', #215, 1000.000000000000000 ) ;
#328 = APPLICATION_PROTOCOL_DEFINITION ( 'international standard', 'config_control_design', 1994, #187 ) ;
#329 = CIRCLE ( 'NONE', #179, 2.399999999999994138 ) ;
#330 = APPROVAL ( #305, 'UNSPECIFIED' ) ;
#331 = PERSON_AND_ORGANIZATION_ROLE ( 'classification_officer' ) ;
#332 = CARTESIAN_POINT ( 'NONE',  ( 1.425717797896529280E-13, -2.400000000000006128, 61.50000000000000000 ) ) ;
#333 = VERTEX_POINT ( 'NONE', #250 ) ;
#334 = EDGE_CURVE ( 'NONE', #333, #13, #279, .T. ) ;
#335 = CIRCLE ( 'NONE', #120, 1.899999999999999023 ) ;
#336 = APPROVAL_ROLE ( '' ) ;
#337 = FACE_OUTER_BOUND ( 'NONE', #249, .T. ) ;
ENDSEC;
END-ISO-10303-21;
