ISO-10303-21;
HEADER;
FILE_DESCRIPTION (( 'STEP AP203' ),
    '1' );
FILE_NAME ('29727.step',
    '2021-11-24T08:55:43',
    ( '' ),
    ( '' ),
    'SwSTEP 2.0',
    'SolidWorks 2019',
    '' );
FILE_SCHEMA (( 'CONFIG_CONTROL_DESIGN' ));
ENDSEC;

DATA;
#1 = PERSON_AND_ORGANIZATION ( #50, #174 ) ;
#2 = AXIS2_PLACEMENT_3D ( 'NONE', #178, #181, #85 ) ;
#3 = CALENDAR_DATE ( 2021, 24, 11 ) ;
#4 = APPROVAL ( #32, 'UNSPECIFIED' ) ;
#5 = CARTESIAN_POINT ( 'NONE',  ( 2.199633243471174140E-13, 2.624579619658240413E-32, 63.00000000000000000 ) ) ;
#6 = VERTEX_POINT ( 'NONE', #36 ) ;
#7 = CIRCLE ( 'NONE', #65, 3.999999999999994227 ) ;
#8 = PRODUCT_RELATED_PRODUCT_CATEGORY ( 'detail', '', ( #69 ) ) ;
#9 = FACE_OUTER_BOUND ( 'NONE', #27, .T. ) ;
#10 = DATE_TIME_ROLE ( 'creation_date' ) ;
#11 = DATE_TIME_ROLE ( 'classification_date' ) ;
#12 = CONICAL_SURFACE ( 'NONE', #86, 3.500000000000001332, 0.7853981633974473908 ) ;
#13 = EDGE_LOOP ( 'NONE', ( #15 ) ) ;
#14 = PERSON_AND_ORGANIZATION ( #50, #174 ) ;
#15 = ORIENTED_EDGE ( 'NONE', *, *, #26, .T. ) ;
#16 = CARTESIAN_POINT ( 'NONE',  ( 0.0000000000000000000, 0.0000000000000000000, 0.0000000000000000000 ) ) ;
#17 = COORDINATED_UNIVERSAL_TIME_OFFSET ( 1, 0, .AHEAD. ) ;
#18 = VERTEX_POINT ( 'NONE', #107 ) ;
#19 = DIRECTION ( 'NONE',  ( -3.491481338843133355E-15, 1.224646799147353207E-16, -1.000000000000000000 ) ) ;
#20 = DIRECTION ( 'NONE',  ( -3.491481338843133355E-15, 1.224646799147353207E-16, -1.000000000000000000 ) ) ;
#21 = CIRCLE ( 'NONE', #137, 3.500000000000001332 ) ;
#22 = LOCAL_TIME ( 9, 55, 43.00000000000000000, #171 ) ;
#23 = DIRECTION ( 'NONE',  ( 0.0000000000000000000, 1.000000000000000000, 0.0000000000000000000 ) ) ;
#24 = PRODUCT_DEFINITION_FORMATION_WITH_SPECIFIED_SOURCE ( 'ANY', '', #69, .NOT_KNOWN. ) ;
#25 = PERSON_AND_ORGANIZATION ( #50, #174 ) ;
#26 = EDGE_CURVE ( 'NONE', #133, #133, #7, .T. ) ;
#27 = EDGE_LOOP ( 'NONE', ( #104 ) ) ;
#28 = UNCERTAINTY_MEASURE_WITH_UNIT (LENGTH_MEASURE( 1.000000000000000082E-05 ), #165, 'distance_accuracy_value', 'NONE');
#29 = DATE_AND_TIME ( #3, #167 ) ;
#30 = CARTESIAN_POINT ( 'NONE',  ( 2.418969229021996204E-14, -8.484601909799362801E-16, 6.928203230275597591 ) ) ;
#31 = ADVANCED_FACE ( 'NONE', ( #9 ), #66, .F. ) ;
#32 = APPROVAL_STATUS ( 'not_yet_approved' ) ;
#33 = SHAPE_DEFINITION_REPRESENTATION ( #136, #110 ) ;
#34 = FACE_OUTER_BOUND ( 'NONE', #76, .T. ) ;
#35 = VERTEX_POINT ( 'NONE', #131 ) ;
#36 = CARTESIAN_POINT ( 'NONE',  ( 2.182175836776958284E-13, 3.999999999999993339, 62.50000000000000000 ) ) ;
#37 = DIRECTION ( 'NONE',  ( -4.275831445896958607E-31, -1.000000000000000000, -1.224646799147353207E-16 ) ) ;
#38 = ADVANCED_FACE ( 'NONE', ( #121 ), #180, .T. ) ;
#39 = APPLICATION_PROTOCOL_DEFINITION ( 'international standard', 'config_control_design', 1994, #47 ) ;
#40 = PERSON_AND_ORGANIZATION ( #50, #174 ) ;
#41 = AXIS2_PLACEMENT_3D ( 'NONE', #16, #92, #143 ) ;
#42 = SECURITY_CLASSIFICATION_LEVEL ( 'unclassified' ) ;
#43 = DATE_AND_TIME ( #128, #116 ) ;
#44 = FACE_BOUND ( 'NONE', #170, .T. ) ;
#45 = CC_DESIGN_PERSON_AND_ORGANIZATION_ASSIGNMENT ( #14, #127, ( #69 ) ) ;
#46 = FACE_OUTER_BOUND ( 'NONE', #54, .T. ) ;
#47 = APPLICATION_CONTEXT ( 'configuration controlled 3d designs of mechanical parts and assemblies' ) ;
#48 = CC_DESIGN_PERSON_AND_ORGANIZATION_ASSIGNMENT ( #1, #93, ( #24 ) ) ;
#49 = DIRECTION ( 'NONE',  ( -3.491481338843133355E-15, 1.224646799147353207E-16, -1.000000000000000000 ) ) ;
#50 = PERSON ( 'UNSPECIFIED', 'UNSPECIFIED', 'UNSPECIFIED', ('UNSPECIFIED'), ('UNSPECIFIED'), ('UNSPECIFIED') ) ;
#51 =( NAMED_UNIT ( * ) PLANE_ANGLE_UNIT ( ) SI_UNIT ( $, .RADIAN. ) );
#52 = AXIS2_PLACEMENT_3D ( 'NONE', #96, #82, #83 ) ;
#53 = CC_DESIGN_DATE_AND_TIME_ASSIGNMENT ( #29, #11, ( #132 ) ) ;
#54 = EDGE_LOOP ( 'NONE', ( #114 ) ) ;
#55 = PERSON_AND_ORGANIZATION ( #50, #174 ) ;
#56 = CIRCLE ( 'NONE', #161, 4.000000000000000888 ) ;
#57 = APPROVAL_ROLE ( '' ) ;
#58 = ORIENTED_EDGE ( 'NONE', *, *, #126, .T. ) ;
#59 = APPROVAL_DATE_TIME ( #62, #91 ) ;
#60 = PERSON_AND_ORGANIZATION ( #50, #174 ) ;
#61 = APPLICATION_CONTEXT ( 'configuration controlled 3d designs of mechanical parts and assemblies' ) ;
#62 = DATE_AND_TIME ( #87, #22 ) ;
#63 = DIRECTION ( 'NONE',  ( -7.703719777548954798E-31, -1.000000000000000000, -2.168404344971012073E-16 ) ) ;
#64 = DIRECTION ( 'NONE',  ( 0.0000000000000000000, 1.000000000000000000, 0.0000000000000000000 ) ) ;
#65 = AXIS2_PLACEMENT_3D ( 'NONE', #30, #147, #149 ) ;
#66 = PLANE ( 'NONE',  #144 ) ;
#67 = FACE_OUTER_BOUND ( 'NONE', #117, .T. ) ;
#68 = CC_DESIGN_APPROVAL ( #102, ( #24 ) ) ;
#69 = PRODUCT ( '29727', '29727', '', ( #156 ) ) ;
#70 = MANIFOLD_SOLID_BREP ( 'Corps-Déplacer/Copier1[2]', #99 ) ;
#71 = CC_DESIGN_DATE_AND_TIME_ASSIGNMENT ( #138, #10, ( #154 ) ) ;
#72 = ORIENTED_EDGE ( 'NONE', *, *, #26, .F. ) ;
#73 = ADVANCED_FACE ( 'NONE', ( #46, #44 ), #12, .T. ) ;
#74 = APPLICATION_PROTOCOL_DEFINITION ( 'international standard', 'config_control_design', 1994, #61 ) ;
#75 = DESIGN_CONTEXT ( 'detailed design', #61, 'design' ) ;
#76 = EDGE_LOOP ( 'NONE', ( #100 ) ) ;
#77 = MANIFOLD_SOLID_BREP ( 'Corps-Déplacer/Copier1[1]', #89 ) ;
#78 = APPROVAL_ROLE ( '' ) ;
#79 = CALENDAR_DATE ( 2021, 24, 11 ) ;
#80 = FACE_OUTER_BOUND ( 'NONE', #13, .T. ) ;
#81 = DIRECTION ( 'NONE',  ( 0.0000000000000000000, 1.000000000000000000, 0.0000000000000000000 ) ) ;
#82 = DIRECTION ( 'NONE',  ( -3.491481338843133355E-15, 1.224646799147353207E-16, -1.000000000000000000 ) ) ;
#83 = DIRECTION ( 'NONE',  ( 4.275831445896957731E-31, 1.000000000000000000, 1.224646799147353207E-16 ) ) ;
#84 = CC_DESIGN_PERSON_AND_ORGANIZATION_ASSIGNMENT ( #40, #183, ( #132 ) ) ;
#85 = DIRECTION ( 'NONE',  ( 7.703719777548954798E-31, 1.000000000000000000, 2.168404344971012073E-16 ) ) ;
#86 = AXIS2_PLACEMENT_3D ( 'NONE', #108, #20, #81 ) ;
#87 = CALENDAR_DATE ( 2021, 24, 11 ) ;
#88 = EDGE_LOOP ( 'NONE', ( #72 ) ) ;
#89 = CLOSED_SHELL ( 'NONE', ( #31, #162, #73, #112 ) ) ;
#90 = APPROVAL_PERSON_ORGANIZATION ( #25, #91, #57 ) ;
#91 = APPROVAL ( #106, 'UNSPECIFIED' ) ;
#92 = DIRECTION ( 'NONE',  ( 0.0000000000000000000, 0.0000000000000000000, 1.000000000000000000 ) ) ;
#93 = PERSON_AND_ORGANIZATION_ROLE ( 'creator' ) ;
#94 = APPROVAL_PERSON_ORGANIZATION ( #103, #4, #115 ) ;
#95 = CARTESIAN_POINT ( 'NONE',  ( 2.199633243471174140E-13, -7.715274834628325378E-15, 63.00000000000000000 ) ) ;
#96 = CARTESIAN_POINT ( 'NONE',  ( 0.0000000000000000000, 0.0000000000000000000, 0.0000000000000000000 ) ) ;
#97 = DIRECTION ( 'NONE',  ( 4.275831445896958607E-31, 1.000000000000000000, 1.224646799147353207E-16 ) ) ;
#98 =( NAMED_UNIT ( * ) SI_UNIT ( $, .STERADIAN. ) SOLID_ANGLE_UNIT ( ) );
#99 = CLOSED_SHELL ( 'NONE', ( #179, #38 ) ) ;
#100 = ORIENTED_EDGE ( 'NONE', *, *, #141, .T. ) ;
#101 = APPROVAL_DATE_TIME ( #119, #102 ) ;
#102 = APPROVAL ( #105, 'UNSPECIFIED' ) ;
#103 = PERSON_AND_ORGANIZATION ( #50, #174 ) ;
#104 = ORIENTED_EDGE ( 'NONE', *, *, #135, .T. ) ;
#105 = APPROVAL_STATUS ( 'not_yet_approved' ) ;
#106 = APPROVAL_STATUS ( 'not_yet_approved' ) ;
#107 = CARTESIAN_POINT ( 'NONE',  ( 2.199633243471174140E-13, 3.499999999999993783, 63.00000000000000000 ) ) ;
#108 = CARTESIAN_POINT ( 'NONE',  ( 2.199633243471174140E-13, -7.715274834628325378E-15, 63.00000000000000000 ) ) ;
#109 = FACE_OUTER_BOUND ( 'NONE', #172, .T. ) ;
#110 = ADVANCED_BREP_SHAPE_REPRESENTATION ( '29727', ( #77, #70, #41 ), #157 ) ;
#111 = AXIS2_PLACEMENT_3D ( 'NONE', #129, #177, #63 ) ;
#112 = ADVANCED_FACE ( 'NONE', ( #67 ), #166, .F. ) ;
#113 = CIRCLE ( 'NONE', #2, 3.999999999999994227 ) ;
#114 = ORIENTED_EDGE ( 'NONE', *, *, #141, .F. ) ;
#115 = APPROVAL_ROLE ( '' ) ;
#116 = LOCAL_TIME ( 9, 55, 43.00000000000000000, #159 ) ;
#117 = EDGE_LOOP ( 'NONE', ( #140 ) ) ;
#118 = PERSON_AND_ORGANIZATION_ROLE ( 'creator' ) ;
#119 = DATE_AND_TIME ( #79, #139 ) ;
#120 = COORDINATED_UNIVERSAL_TIME_OFFSET ( 1, 0, .AHEAD. ) ;
#121 = FACE_OUTER_BOUND ( 'NONE', #88, .T. ) ;
#122 = DIRECTION ( 'NONE',  ( 3.491481338843133355E-15, -1.224646799147353207E-16, 1.000000000000000000 ) ) ;
#123 = AXIS2_PLACEMENT_3D ( 'NONE', #5, #19, #97 ) ;
#124 = CARTESIAN_POINT ( 'NONE',  ( 2.418969229021996519E-14, -1.502314598737180725E-15, 6.928203230275597591 ) ) ;
#125 = APPROVAL_PERSON_ORGANIZATION ( #173, #102, #78 ) ;
#126 = EDGE_CURVE ( 'NONE', #18, #18, #21, .T. ) ;
#127 = PERSON_AND_ORGANIZATION_ROLE ( 'design_owner' ) ;
#128 = CALENDAR_DATE ( 2021, 24, 11 ) ;
#129 = CARTESIAN_POINT ( 'NONE',  ( 2.418969229021996204E-14, -8.484601909799362801E-16, 6.928203230275597591 ) ) ;
#130 = DIRECTION ( 'NONE',  ( 3.491481338843133355E-15, -1.224646799147353207E-16, 1.000000000000000000 ) ) ;
#131 = CARTESIAN_POINT ( 'NONE',  ( 2.418969229021996519E-14, 3.999999999999993339, 6.928203230275597591 ) ) ;
#132 = SECURITY_CLASSIFICATION ( '', '', #42 ) ;
#133 = VERTEX_POINT ( 'NONE', #146 ) ;
#134 = CARTESIAN_POINT ( 'NONE',  ( 2.182175836776958284E-13, -7.654042494670957804E-15, 62.50000000000000000 ) ) ;
#135 = EDGE_CURVE ( 'NONE', #35, #35, #113, .T. ) ;
#136 = PRODUCT_DEFINITION_SHAPE ( 'NONE', 'NONE',  #154 ) ;
#137 = AXIS2_PLACEMENT_3D ( 'NONE', #95, #151, #23 ) ;
#138 = DATE_AND_TIME ( #155, #153 ) ;
#139 = LOCAL_TIME ( 9, 55, 43.00000000000000000, #142 ) ;
#140 = ORIENTED_EDGE ( 'NONE', *, *, #126, .F. ) ;
#141 = EDGE_CURVE ( 'NONE', #6, #6, #56, .T. ) ;
#142 = COORDINATED_UNIVERSAL_TIME_OFFSET ( 1, 0, .AHEAD. ) ;
#143 = DIRECTION ( 'NONE',  ( 1.000000000000000000, 0.0000000000000000000, 0.0000000000000000000 ) ) ;
#144 = AXIS2_PLACEMENT_3D ( 'NONE', #164, #122, #37 ) ;
#145 = CC_DESIGN_APPROVAL ( #91, ( #154 ) ) ;
#146 = CARTESIAN_POINT ( 'NONE',  ( 2.418969229021996519E-14, 3.999999999999993339, 6.928203230275597591 ) ) ;
#147 = DIRECTION ( 'NONE',  ( -3.491481338843133355E-15, 1.224646799147353207E-16, -1.000000000000000000 ) ) ;
#148 = CYLINDRICAL_SURFACE ( 'NONE', #52, 3.999999999999997335 ) ;
#149 = DIRECTION ( 'NONE',  ( 7.703719777548954798E-31, 1.000000000000000000, 2.168404344971012073E-16 ) ) ;
#150 = CC_DESIGN_PERSON_AND_ORGANIZATION_ASSIGNMENT ( #60, #175, ( #24 ) ) ;
#151 = DIRECTION ( 'NONE',  ( -3.491481338843133355E-15, 1.224646799147353207E-16, -1.000000000000000000 ) ) ;
#152 = CONICAL_SURFACE ( 'NONE', #111, 3.999999999999994227, 0.5235987755982927094 ) ;
#153 = LOCAL_TIME ( 9, 55, 43.00000000000000000, #17 ) ;
#154 = PRODUCT_DEFINITION ( 'UNKNOWN', '', #24, #75 ) ;
#155 = CALENDAR_DATE ( 2021, 24, 11 ) ;
#156 = MECHANICAL_CONTEXT ( 'NONE', #47, 'mechanical' ) ;
#157 =( GEOMETRIC_REPRESENTATION_CONTEXT ( 3 ) GLOBAL_UNCERTAINTY_ASSIGNED_CONTEXT ( ( #28 ) ) GLOBAL_UNIT_ASSIGNED_CONTEXT ( ( #165, #51, #98 ) ) REPRESENTATION_CONTEXT ( 'NONE', 'WORKASPACE' ) );
#158 = ORIENTED_EDGE ( 'NONE', *, *, #135, .F. ) ;
#159 = COORDINATED_UNIVERSAL_TIME_OFFSET ( 1, 0, .AHEAD. ) ;
#160 = APPROVAL_DATE_TIME ( #43, #4 ) ;
#161 = AXIS2_PLACEMENT_3D ( 'NONE', #134, #49, #64 ) ;
#162 = ADVANCED_FACE ( 'NONE', ( #109, #34 ), #148, .T. ) ;
#163 = CC_DESIGN_SECURITY_CLASSIFICATION ( #132, ( #24 ) ) ;
#164 = CARTESIAN_POINT ( 'NONE',  ( 2.418969229021996519E-14, -1.502314598737180725E-15, 6.928203230275597591 ) ) ;
#165 =( LENGTH_UNIT ( ) NAMED_UNIT ( * ) SI_UNIT ( .MILLI., .METRE. ) );
#166 = PLANE ( 'NONE',  #123 ) ;
#167 = LOCAL_TIME ( 9, 55, 43.00000000000000000, #120 ) ;
#168 = DIRECTION ( 'NONE',  ( -4.275831445896958607E-31, -1.000000000000000000, -1.224646799147353207E-16 ) ) ;
#169 = AXIS2_PLACEMENT_3D ( 'NONE', #124, #130, #168 ) ;
#170 = EDGE_LOOP ( 'NONE', ( #58 ) ) ;
#171 = COORDINATED_UNIVERSAL_TIME_OFFSET ( 1, 0, .AHEAD. ) ;
#172 = EDGE_LOOP ( 'NONE', ( #158 ) ) ;
#173 = PERSON_AND_ORGANIZATION ( #50, #174 ) ;
#174 = ORGANIZATION ( 'UNSPECIFIED', 'UNSPECIFIED', '' ) ;
#175 = PERSON_AND_ORGANIZATION_ROLE ( 'design_supplier' ) ;
#176 = CC_DESIGN_APPROVAL ( #4, ( #132 ) ) ;
#177 = DIRECTION ( 'NONE',  ( 3.491481338843133355E-15, -1.224646799147353207E-16, 1.000000000000000000 ) ) ;
#178 = CARTESIAN_POINT ( 'NONE',  ( 2.418969229021996204E-14, -8.484601909799362801E-16, 6.928203230275597591 ) ) ;
#179 = ADVANCED_FACE ( 'NONE', ( #80 ), #152, .T. ) ;
#180 = PLANE ( 'NONE',  #169 ) ;
#181 = DIRECTION ( 'NONE',  ( -3.491481338843133355E-15, 1.224646799147353207E-16, -1.000000000000000000 ) ) ;
#182 = CC_DESIGN_PERSON_AND_ORGANIZATION_ASSIGNMENT ( #55, #118, ( #154 ) ) ;
#183 = PERSON_AND_ORGANIZATION_ROLE ( 'classification_officer' ) ;
ENDSEC;
END-ISO-10303-21;
