ISO-10303-21;
HEADER;
FILE_DESCRIPTION (( 'STEP AP203' ),
    '1' );
FILE_NAME ('2972.step',
    '2021-10-06T11:26:03',
    ( '' ),
    ( '' ),
    'SwSTEP 2.0',
    'SolidWorks 2019',
    '' );
FILE_SCHEMA (( 'CONFIG_CONTROL_DESIGN' ));
ENDSEC;

DATA;
#1 = VERTEX_POINT ( 'NONE', #82 ) ;
#2 = AXIS2_PLACEMENT_3D ( 'NONE', #55, #24, #116 ) ;
#3 = CARTESIAN_POINT ( 'NONE',  ( 1.326762908760390423E-13, -4.653657836759941941E-15, 38.00000000000000000 ) ) ;
#4 = DIRECTION ( 'NONE',  ( 4.275831445896958607E-31, 1.000000000000000000, 1.224646799147353207E-16 ) ) ;
#5 = UNCERTAINTY_MEASURE_WITH_UNIT (LENGTH_MEASURE( 1.000000000000000082E-05 ), #135, 'distance_accuracy_value', 'NONE');
#6 = FACE_OUTER_BOUND ( 'NONE', #145, .T. ) ;
#7 =( NAMED_UNIT ( * ) SI_UNIT ( $, .STERADIAN. ) SOLID_ANGLE_UNIT ( ) );
#8 = PRODUCT_DEFINITION ( 'UNKNOWN', '', #77, #160 ) ;
#9 = PERSON_AND_ORGANIZATION_ROLE ( 'creator' ) ;
#10 = APPROVAL_ROLE ( '' ) ;
#11 = DATE_AND_TIME ( #155, #87 ) ;
#12 = APPROVAL_DATE_TIME ( #106, #23 ) ;
#13 = FACE_OUTER_BOUND ( 'NONE', #121, .T. ) ;
#14 = CC_DESIGN_APPROVAL ( #163, ( #91 ) ) ;
#15 = CARTESIAN_POINT ( 'NONE',  ( 5.586370142149013368E-14, 5.811569157814656492E-33, 16.00000000000000000 ) ) ;
#16 = AXIS2_PLACEMENT_3D ( 'NONE', #150, #178, #35 ) ;
#17 = PRODUCT_RELATED_PRODUCT_CATEGORY ( 'detail', '', ( #30 ) ) ;
#18 = CARTESIAN_POINT ( 'NONE',  ( 1.261780977121071439E-15, -4.425731902575019893E-17, 0.3613884350701268566 ) ) ;
#19 = CARTESIAN_POINT ( 'NONE',  ( 0.0000000000000000000, 0.0000000000000000000, 0.0000000000000000000 ) ) ;
#20 = PERSON ( 'UNSPECIFIED', 'UNSPECIFIED', 'UNSPECIFIED', ('UNSPECIFIED'), ('UNSPECIFIED'), ('UNSPECIFIED') ) ;
#21 = CYLINDRICAL_SURFACE ( 'NONE', #110, 0.7749999999999973577 ) ;
#22 = PLANE ( 'NONE',  #31 ) ;
#23 = APPROVAL ( #119, 'UNSPECIFIED' ) ;
#24 = DIRECTION ( 'NONE',  ( -3.491481338843133355E-15, 1.224646799147353207E-16, -1.000000000000000000 ) ) ;
#25 = DIRECTION ( 'NONE',  ( 0.0000000000000000000, 0.0000000000000000000, 1.000000000000000000 ) ) ;
#26 = COORDINATED_UNIVERSAL_TIME_OFFSET ( 1, 0, .AHEAD. ) ;
#27 = ORIENTED_EDGE ( 'NONE', *, *, #172, .T. ) ;
#28 = PERSON_AND_ORGANIZATION_ROLE ( 'creator' ) ;
#29 = EDGE_LOOP ( 'NONE', ( #157 ) ) ;
#30 = PRODUCT ( '2972', '2972', '', ( #151 ) ) ;
#31 = AXIS2_PLACEMENT_3D ( 'NONE', #136, #95, #54 ) ;
#32 = FACE_OUTER_BOUND ( 'NONE', #105, .T. ) ;
#33 = AXIS2_PLACEMENT_3D ( 'NONE', #93, #68, #131 ) ;
#34 = CC_DESIGN_SECURITY_CLASSIFICATION ( #91, ( #77 ) ) ;
#35 = DIRECTION ( 'NONE',  ( 0.0000000000000000000, 1.000000000000000000, 0.0000000000000000000 ) ) ;
#36 = ADVANCED_FACE ( 'NONE', ( #13, #186 ), #187, .T. ) ;
#37 = CARTESIAN_POINT ( 'NONE',  ( 1.319779946082704535E-13, 0.7749999999999962474, 37.79999999999999716 ) ) ;
#38 = DIRECTION ( 'NONE',  ( 0.0000000000000000000, 1.000000000000000000, 0.0000000000000000000 ) ) ;
#39 = PLANE ( 'NONE',  #45 ) ;
#40 = ORGANIZATION ( 'UNSPECIFIED', 'UNSPECIFIED', '' ) ;
#41 = AXIS2_PLACEMENT_3D ( 'NONE', #154, #25, #153 ) ;
#42 = COORDINATED_UNIVERSAL_TIME_OFFSET ( 1, 0, .AHEAD. ) ;
#43 = COORDINATED_UNIVERSAL_TIME_OFFSET ( 1, 0, .AHEAD. ) ;
#44 = DIRECTION ( 'NONE',  ( -4.275831445896958607E-31, -1.000000000000000000, -1.224646799147353207E-16 ) ) ;
#45 = AXIS2_PLACEMENT_3D ( 'NONE', #98, #149, #4 ) ;
#46 = SECURITY_CLASSIFICATION_LEVEL ( 'unclassified' ) ;
#47 = EDGE_LOOP ( 'NONE', ( #170 ) ) ;
#48 = APPROVAL_DATE_TIME ( #137, #163 ) ;
#49 = EDGE_LOOP ( 'NONE', ( #27 ) ) ;
#50 = CC_DESIGN_PERSON_AND_ORGANIZATION_ASSIGNMENT ( #180, #71, ( #77 ) ) ;
#51 = CIRCLE ( 'NONE', #16, 0.7749999999999983569 ) ;
#52 = CIRCLE ( 'NONE', #171, 0.7750000000000009104 ) ;
#53 = FACE_OUTER_BOUND ( 'NONE', #47, .T. ) ;
#54 = DIRECTION ( 'NONE',  ( -4.275831445896958607E-31, -1.000000000000000000, -1.224646799147353207E-16 ) ) ;
#55 = CARTESIAN_POINT ( 'NONE',  ( 1.261780977121071439E-15, -4.425731902575019893E-17, 0.3613884350701268566 ) ) ;
#56 = AXIS2_PLACEMENT_3D ( 'NONE', #18, #193, #81 ) ;
#57 = APPROVAL_PERSON_ORGANIZATION ( #123, #23, #101 ) ;
#58 = VERTEX_POINT ( 'NONE', #83 ) ;
#59 = ADVANCED_FACE ( 'NONE', ( #32 ), #158, .T. ) ;
#60 = CALENDAR_DATE ( 2021, 6, 10 ) ;
#61 = DATE_AND_TIME ( #138, #102 ) ;
#62 = APPROVAL_STATUS ( 'not_yet_approved' ) ;
#63 = ORIENTED_EDGE ( 'NONE', *, *, #129, .F. ) ;
#64 = ORIENTED_EDGE ( 'NONE', *, *, #132, .F. ) ;
#65 = ORIENTED_EDGE ( 'NONE', *, *, #148, .T. ) ;
#66 = AXIS2_PLACEMENT_3D ( 'NONE', #189, #161, #69 ) ;
#67 = CARTESIAN_POINT ( 'NONE',  ( 1.261780977121071834E-15, 0.7749999999999963585, 0.3613884350701269677 ) ) ;
#68 = DIRECTION ( 'NONE',  ( -3.491481338843133355E-15, 1.224646799147353207E-16, -1.000000000000000000 ) ) ;
#69 = DIRECTION ( 'NONE',  ( 0.0000000000000000000, 1.000000000000000000, 0.0000000000000000000 ) ) ;
#70 = APPROVAL_PERSON_ORGANIZATION ( #120, #163, #200 ) ;
#71 = PERSON_AND_ORGANIZATION_ROLE ( 'design_supplier' ) ;
#72 = CC_DESIGN_PERSON_AND_ORGANIZATION_ASSIGNMENT ( #88, #89, ( #91 ) ) ;
#73 = APPROVAL_DATE_TIME ( #181, #152 ) ;
#74 = DATE_TIME_ROLE ( 'classification_date' ) ;
#75 = ADVANCED_BREP_SHAPE_REPRESENTATION ( '2972', ( #183, #97, #41 ), #143 ) ;
#76 = APPROVAL_STATUS ( 'not_yet_approved' ) ;
#77 = PRODUCT_DEFINITION_FORMATION_WITH_SPECIFIED_SOURCE ( 'ANY', '', #30, .NOT_KNOWN. ) ;
#78 = CIRCLE ( 'NONE', #191, 0.5750000000000009548 ) ;
#79 = CC_DESIGN_PERSON_AND_ORGANIZATION_ASSIGNMENT ( #126, #141, ( #30 ) ) ;
#80 = AXIS2_PLACEMENT_3D ( 'NONE', #156, #169, #109 ) ;
#81 = DIRECTION ( 'NONE',  ( -4.970141791967083659E-31, -1.000000000000000000, -1.398970545142592951E-16 ) ) ;
#82 = CARTESIAN_POINT ( 'NONE',  ( 5.586370142149013368E-14, 0.7749999999999963585, 16.00000000000000000 ) ) ;
#83 = CARTESIAN_POINT ( 'NONE',  ( 5.586370142149013368E-14, 0.7749999999999963585, 16.00000000000000000 ) ) ;
#84 = COORDINATED_UNIVERSAL_TIME_OFFSET ( 1, 0, .AHEAD. ) ;
#85 = PERSON_AND_ORGANIZATION ( #20, #40 ) ;
#86 = APPLICATION_PROTOCOL_DEFINITION ( 'international standard', 'config_control_design', 1994, #159 ) ;
#87 = LOCAL_TIME ( 13, 26, 3.000000000000000000, #195 ) ;
#88 = PERSON_AND_ORGANIZATION ( #20, #40 ) ;
#89 = PERSON_AND_ORGANIZATION_ROLE ( 'classification_officer' ) ;
#90 = ADVANCED_FACE ( 'NONE', ( #103, #53 ), #21, .T. ) ;
#91 = SECURITY_CLASSIFICATION ( '', '', #46 ) ;
#92 = CIRCLE ( 'NONE', #2, 0.7749999999999963585 ) ;
#93 = CARTESIAN_POINT ( 'NONE',  ( 5.586370142149013368E-14, -1.959434878635765131E-15, 16.00000000000000000 ) ) ;
#94 = FACE_BOUND ( 'NONE', #29, .T. ) ;
#95 = DIRECTION ( 'NONE',  ( 3.491481338843133355E-15, -1.224646799147353207E-16, 1.000000000000000000 ) ) ;
#96 = LOCAL_TIME ( 13, 26, 3.000000000000000000, #26 ) ;
#97 = MANIFOLD_SOLID_BREP ( 'Corps-Déplacer/Copier1[2]', #115 ) ;
#98 = CARTESIAN_POINT ( 'NONE',  ( 1.326762908760390423E-13, 4.311809375152777674E-33, 38.00000000000000000 ) ) ;
#99 = APPROVAL_PERSON_ORGANIZATION ( #85, #152, #10 ) ;
#100 = PERSON_AND_ORGANIZATION ( #20, #40 ) ;
#101 = APPROVAL_ROLE ( '' ) ;
#102 = LOCAL_TIME ( 13, 26, 3.000000000000000000, #43 ) ;
#103 = FACE_OUTER_BOUND ( 'NONE', #125, .T. ) ;
#104 = CC_DESIGN_PERSON_AND_ORGANIZATION_ASSIGNMENT ( #140, #28, ( #8 ) ) ;
#105 = EDGE_LOOP ( 'NONE', ( #63 ) ) ;
#106 = DATE_AND_TIME ( #197, #96 ) ;
#107 = ORIENTED_EDGE ( 'NONE', *, *, #132, .T. ) ;
#108 = CC_DESIGN_DATE_AND_TIME_ASSIGNMENT ( #11, #74, ( #91 ) ) ;
#109 = DIRECTION ( 'NONE',  ( 4.275831445896958607E-31, 1.000000000000000000, 1.224646799147353207E-16 ) ) ;
#110 = AXIS2_PLACEMENT_3D ( 'NONE', #19, #190, #112 ) ;
#111 = DIRECTION ( 'NONE',  ( 3.491481338843133355E-15, -1.224646799147353207E-16, 1.000000000000000000 ) ) ;
#112 = DIRECTION ( 'NONE',  ( 4.275831445896958607E-31, 1.000000000000000000, 1.224646799147353207E-16 ) ) ;
#113 = VERTEX_POINT ( 'NONE', #67 ) ;
#114 = CC_DESIGN_PERSON_AND_ORGANIZATION_ASSIGNMENT ( #100, #9, ( #77 ) ) ;
#115 = CLOSED_SHELL ( 'NONE', ( #117, #90, #59 ) ) ;
#116 = DIRECTION ( 'NONE',  ( 4.970141791967083659E-31, 1.000000000000000000, 1.398970545142592951E-16 ) ) ;
#117 = ADVANCED_FACE ( 'NONE', ( #118 ), #142, .T. ) ;
#118 = FACE_OUTER_BOUND ( 'NONE', #199, .T. ) ;
#119 = APPROVAL_STATUS ( 'not_yet_approved' ) ;
#120 = PERSON_AND_ORGANIZATION ( #20, #40 ) ;
#121 = EDGE_LOOP ( 'NONE', ( #64 ) ) ;
#122 = EDGE_CURVE ( 'NONE', #162, #162, #78, .T. ) ;
#123 = PERSON_AND_ORGANIZATION ( #20, #40 ) ;
#124 = AXIS2_PLACEMENT_3D ( 'NONE', #15, #111, #44 ) ;
#125 = EDGE_LOOP ( 'NONE', ( #127 ) ) ;
#126 = PERSON_AND_ORGANIZATION ( #20, #40 ) ;
#127 = ORIENTED_EDGE ( 'NONE', *, *, #148, .F. ) ;
#128 = ORIENTED_EDGE ( 'NONE', *, *, #172, .F. ) ;
#129 = EDGE_CURVE ( 'NONE', #58, #58, #196, .T. ) ;
#130 = PRODUCT_DEFINITION_SHAPE ( 'NONE', 'NONE',  #8 ) ;
#131 = DIRECTION ( 'NONE',  ( 0.0000000000000000000, 1.000000000000000000, 0.0000000000000000000 ) ) ;
#132 = EDGE_CURVE ( 'NONE', #1, #1, #51, .T. ) ;
#133 = FACE_OUTER_BOUND ( 'NONE', #182, .T. ) ;
#134 = CLOSED_SHELL ( 'NONE', ( #167, #36, #146, #144 ) ) ;
#135 =( LENGTH_UNIT ( ) NAMED_UNIT ( * ) SI_UNIT ( .MILLI., .METRE. ) );
#136 = CARTESIAN_POINT ( 'NONE',  ( 5.586370142149013368E-14, 5.811569157814656492E-33, 16.00000000000000000 ) ) ;
#137 = DATE_AND_TIME ( #201, #165 ) ;
#138 = CALENDAR_DATE ( 2021, 6, 10 ) ;
#139 = CONICAL_SURFACE ( 'NONE', #66, 0.5750000000000009548, 0.7853981633974512766 ) ;
#140 = PERSON_AND_ORGANIZATION ( #20, #40 ) ;
#141 = PERSON_AND_ORGANIZATION_ROLE ( 'design_owner' ) ;
#142 = CONICAL_SURFACE ( 'NONE', #56, 0.7749999999999963585, 1.134464013796309345 ) ;
#143 =( GEOMETRIC_REPRESENTATION_CONTEXT ( 3 ) GLOBAL_UNCERTAINTY_ASSIGNED_CONTEXT ( ( #5 ) ) GLOBAL_UNIT_ASSIGNED_CONTEXT ( ( #135, #188, #7 ) ) REPRESENTATION_CONTEXT ( 'NONE', 'WORKASPACE' ) );
#144 = ADVANCED_FACE ( 'NONE', ( #133 ), #39, .F. ) ;
#145 = EDGE_LOOP ( 'NONE', ( #107 ) ) ;
#146 = ADVANCED_FACE ( 'NONE', ( #166, #94 ), #139, .T. ) ;
#147 = CARTESIAN_POINT ( 'NONE',  ( 1.326762908760390423E-13, 0.5749999999999962919, 38.00000000000000000 ) ) ;
#148 = EDGE_CURVE ( 'NONE', #113, #113, #92, .T. ) ;
#149 = DIRECTION ( 'NONE',  ( -3.491481338843133355E-15, 1.224646799147353207E-16, -1.000000000000000000 ) ) ;
#150 = CARTESIAN_POINT ( 'NONE',  ( 5.586370142149013368E-14, -1.959434878635765131E-15, 16.00000000000000000 ) ) ;
#151 = MECHANICAL_CONTEXT ( 'NONE', #159, 'mechanical' ) ;
#152 = APPROVAL ( #62, 'UNSPECIFIED' ) ;
#153 = DIRECTION ( 'NONE',  ( 1.000000000000000000, 0.0000000000000000000, 0.0000000000000000000 ) ) ;
#154 = CARTESIAN_POINT ( 'NONE',  ( 0.0000000000000000000, 0.0000000000000000000, 0.0000000000000000000 ) ) ;
#155 = CALENDAR_DATE ( 2021, 6, 10 ) ;
#156 = CARTESIAN_POINT ( 'NONE',  ( 0.0000000000000000000, 0.0000000000000000000, 0.0000000000000000000 ) ) ;
#157 = ORIENTED_EDGE ( 'NONE', *, *, #122, .T. ) ;
#158 = PLANE ( 'NONE',  #124 ) ;
#159 = APPLICATION_CONTEXT ( 'configuration controlled 3d designs of mechanical parts and assemblies' ) ;
#160 = DESIGN_CONTEXT ( 'detailed design', #175, 'design' ) ;
#161 = DIRECTION ( 'NONE',  ( -3.491481338843133355E-15, 1.224646799147353207E-16, -1.000000000000000000 ) ) ;
#162 = VERTEX_POINT ( 'NONE', #147 ) ;
#163 = APPROVAL ( #76, 'UNSPECIFIED' ) ;
#164 = LOCAL_TIME ( 13, 26, 3.000000000000000000, #84 ) ;
#165 = LOCAL_TIME ( 13, 26, 3.000000000000000000, #42 ) ;
#166 = FACE_OUTER_BOUND ( 'NONE', #184, .T. ) ;
#167 = ADVANCED_FACE ( 'NONE', ( #6 ), #22, .F. ) ;
#168 = SHAPE_DEFINITION_REPRESENTATION ( #130, #75 ) ;
#169 = DIRECTION ( 'NONE',  ( -3.491481338843133355E-15, 1.224646799147353207E-16, -1.000000000000000000 ) ) ;
#170 = ORIENTED_EDGE ( 'NONE', *, *, #129, .T. ) ;
#171 = AXIS2_PLACEMENT_3D ( 'NONE', #176, #177, #38 ) ;
#172 = EDGE_CURVE ( 'NONE', #174, #174, #52, .T. ) ;
#173 = DIRECTION ( 'NONE',  ( -3.491481338843133355E-15, 1.224646799147353207E-16, -1.000000000000000000 ) ) ;
#174 = VERTEX_POINT ( 'NONE', #37 ) ;
#175 = APPLICATION_CONTEXT ( 'configuration controlled 3d designs of mechanical parts and assemblies' ) ;
#176 = CARTESIAN_POINT ( 'NONE',  ( 1.319779946082704535E-13, -4.629164900776995227E-15, 37.79999999999999716 ) ) ;
#177 = DIRECTION ( 'NONE',  ( -3.491481338843133355E-15, 1.224646799147353207E-16, -1.000000000000000000 ) ) ;
#178 = DIRECTION ( 'NONE',  ( -3.491481338843133355E-15, 1.224646799147353207E-16, -1.000000000000000000 ) ) ;
#179 = CC_DESIGN_APPROVAL ( #152, ( #8 ) ) ;
#180 = PERSON_AND_ORGANIZATION ( #20, #40 ) ;
#181 = DATE_AND_TIME ( #60, #164 ) ;
#182 = EDGE_LOOP ( 'NONE', ( #203 ) ) ;
#183 = MANIFOLD_SOLID_BREP ( 'Corps-Déplacer/Copier1[1]', #134 ) ;
#184 = EDGE_LOOP ( 'NONE', ( #128 ) ) ;
#185 = DATE_TIME_ROLE ( 'creation_date' ) ;
#186 = FACE_OUTER_BOUND ( 'NONE', #49, .T. ) ;
#187 = CYLINDRICAL_SURFACE ( 'NONE', #80, 0.7749999999999996891 ) ;
#188 =( NAMED_UNIT ( * ) PLANE_ANGLE_UNIT ( ) SI_UNIT ( $, .RADIAN. ) );
#189 = CARTESIAN_POINT ( 'NONE',  ( 1.326762908760390423E-13, -4.653657836759941941E-15, 38.00000000000000000 ) ) ;
#190 = DIRECTION ( 'NONE',  ( -3.491481338843133355E-15, 1.224646799147353207E-16, -1.000000000000000000 ) ) ;
#191 = AXIS2_PLACEMENT_3D ( 'NONE', #3, #173, #194 ) ;
#192 = CC_DESIGN_APPROVAL ( #23, ( #77 ) ) ;
#193 = DIRECTION ( 'NONE',  ( 3.491481338843133355E-15, -1.224646799147353207E-16, 1.000000000000000000 ) ) ;
#194 = DIRECTION ( 'NONE',  ( 0.0000000000000000000, 1.000000000000000000, 0.0000000000000000000 ) ) ;
#195 = COORDINATED_UNIVERSAL_TIME_OFFSET ( 1, 0, .AHEAD. ) ;
#196 = CIRCLE ( 'NONE', #33, 0.7749999999999983569 ) ;
#197 = CALENDAR_DATE ( 2021, 6, 10 ) ;
#198 = APPLICATION_PROTOCOL_DEFINITION ( 'international standard', 'config_control_design', 1994, #175 ) ;
#199 = EDGE_LOOP ( 'NONE', ( #65 ) ) ;
#200 = APPROVAL_ROLE ( '' ) ;
#201 = CALENDAR_DATE ( 2021, 6, 10 ) ;
#202 = CC_DESIGN_DATE_AND_TIME_ASSIGNMENT ( #61, #185, ( #8 ) ) ;
#203 = ORIENTED_EDGE ( 'NONE', *, *, #122, .F. ) ;
ENDSEC;
END-ISO-10303-21;
