ISO-10303-21;
HEADER;
FILE_DESCRIPTION (( 'STEP AP203' ),
    '1' );
FILE_NAME ('29694.step',
    '2021-09-03T07:21:50',
    ( '' ),
    ( '' ),
    'SwSTEP 2.0',
    'SolidWorks 2019',
    '' );
FILE_SCHEMA (( 'CONFIG_CONTROL_DESIGN' ));
ENDSEC;

DATA;
#1 = CARTESIAN_POINT ( 'NONE',  ( 7.332110811570580046E-14, 2.062169701160046547E-32, 21.00000000000000000 ) ) ;
#2 = LOCAL_TIME ( 9, 21, 50.00000000000000000, #187 ) ;
#3 = DATE_TIME_ROLE ( 'creation_date' ) ;
#4 = EDGE_CURVE ( 'NONE', #172, #59, #27, .T. ) ;
#5 = CALENDAR_DATE ( 2021, 3, 9 ) ;
#6 = FACE_OUTER_BOUND ( 'NONE', #269, .T. ) ;
#7 = ORIENTED_EDGE ( 'NONE', *, *, #179, .T. ) ;
#8 = PLANE ( 'NONE',  #316 ) ;
#9 = CARTESIAN_POINT ( 'NONE',  ( 0.0000000000000000000, 0.0000000000000000000, 0.0000000000000000000 ) ) ;
#10 = ORIENTED_EDGE ( 'NONE', *, *, #176, .F. ) ;
#11 = AXIS2_PLACEMENT_3D ( 'NONE', #169, #323, #34 ) ;
#12 = CYLINDRICAL_SURFACE ( 'NONE', #283, 2.749999999999993339 ) ;
#13 = ORIENTED_EDGE ( 'NONE', *, *, #326, .T. ) ;
#14 = FACE_OUTER_BOUND ( 'NONE', #115, .T. ) ;
#15 = DIRECTION ( 'NONE',  ( 1.798245827342160317E-15, -0.8571673007021098911, 0.5150380749100582634 ) ) ;
#16 = DIRECTION ( 'NONE',  ( -3.491481338843133355E-15, 1.224646799147353207E-16, -1.000000000000000000 ) ) ;
#17 = CYLINDRICAL_SURFACE ( 'NONE', #75, 2.749999999999997335 ) ;
#18 = AXIS2_PLACEMENT_3D ( 'NONE', #175, #226, #242 ) ;
#19 = ORIENTED_EDGE ( 'NONE', *, *, #104, .F. ) ;
#20 = PRODUCT_DEFINITION_FORMATION_WITH_SPECIFIED_SOURCE ( 'ANY', '', #118, .NOT_KNOWN. ) ;
#21 = CARTESIAN_POINT ( 'NONE',  ( 7.332110811570580046E-14, 2.749999999999992006, 21.00000000000000000 ) ) ;
#22 = APPROVAL_ROLE ( '' ) ;
#23 = PERSON_AND_ORGANIZATION ( #295, #286 ) ;
#24 = VECTOR ( 'NONE', #274, 1000.000000000000000 ) ;
#25 = LINE ( 'NONE', #266, #310 ) ;
#26 = CC_DESIGN_DATE_AND_TIME_ASSIGNMENT ( #182, #50, ( #46 ) ) ;
#27 = LINE ( 'NONE', #239, #272 ) ;
#28 = VECTOR ( 'NONE', #44, 1000.000000000000000 ) ;
#29 = CARTESIAN_POINT ( 'NONE',  ( 2.304377683636468267E-13, 1.612241766361484612E-32, 66.00000000000000000 ) ) ;
#30 = CARTESIAN_POINT ( 'NONE',  ( 0.0000000000000000000, 0.0000000000000000000, 0.0000000000000000000 ) ) ;
#31 = APPROVAL_DATE_TIME ( #107, #248 ) ;
#32 = DIRECTION ( 'NONE',  ( -3.491481338843133355E-15, 1.224646799147353207E-16, -1.000000000000000000 ) ) ;
#33 = DIRECTION ( 'NONE',  ( -4.275831445896958607E-31, -1.000000000000000000, -1.224646799147353207E-16 ) ) ;
#34 = DIRECTION ( 'NONE',  ( 5.602705292762884417E-31, 1.000000000000000000, 1.577021341797101998E-16 ) ) ;
#35 = DIRECTION ( 'NONE',  ( -3.491481338843133355E-15, 1.224646799147353207E-16, -1.000000000000000000 ) ) ;
#36 = AXIS2_PLACEMENT_3D ( 'NONE', #120, #331, #148 ) ;
#37 = CARTESIAN_POINT ( 'NONE',  ( 1.511687717077888258E-13, -2.749999999999997335, 21.00000000000000000 ) ) ;
#38 = ORIENTED_EDGE ( 'NONE', *, *, #4, .F. ) ;
#39 = ADVANCED_FACE ( 'NONE', ( #105 ), #181, .T. ) ;
#40 = DIRECTION ( 'NONE',  ( 0.0000000000000000000, 0.0000000000000000000, 1.000000000000000000 ) ) ;
#41 = ORIENTED_EDGE ( 'NONE', *, *, #160, .F. ) ;
#42 = VECTOR ( 'NONE', #15, 1000.000000000000000 ) ;
#43 = AXIS2_PLACEMENT_3D ( 'NONE', #294, #35, #140 ) ;
#44 = DIRECTION ( 'NONE',  ( -3.491481338843133355E-15, 1.224646799147353207E-16, -1.000000000000000000 ) ) ;
#45 =( NAMED_UNIT ( * ) SI_UNIT ( $, .STERADIAN. ) SOLID_ANGLE_UNIT ( ) );
#46 = SECURITY_CLASSIFICATION ( '', '', #207 ) ;
#47 = DATE_AND_TIME ( #102, #273 ) ;
#48 = APPROVAL_STATUS ( 'not_yet_approved' ) ;
#49 = FACE_OUTER_BOUND ( 'NONE', #58, .T. ) ;
#50 = DATE_TIME_ROLE ( 'classification_date' ) ;
#51 = ORIENTED_EDGE ( 'NONE', *, *, #78, .T. ) ;
#52 = CIRCLE ( 'NONE', #251, 2.750000000000000000 ) ;
#53 = PERSON_AND_ORGANIZATION ( #295, #286 ) ;
#54 = DIRECTION ( 'NONE',  ( -3.491481338843133355E-15, 1.224646799147353207E-16, -1.000000000000000000 ) ) ;
#55 = CARTESIAN_POINT ( 'NONE',  ( 7.332110811570580046E-14, -2.571758278209441661E-15, 21.00000000000000000 ) ) ;
#56 = PERSON_AND_ORGANIZATION ( #295, #286 ) ;
#57 = APPLICATION_CONTEXT ( 'configuration controlled 3d designs of mechanical parts and assemblies' ) ;
#58 = EDGE_LOOP ( 'NONE', ( #170, #146, #288, #221 ) ) ;
#59 = VERTEX_POINT ( 'NONE', #334 ) ;
#60 = CLOSED_SHELL ( 'NONE', ( #300, #39, #97, #202, #264 ) ) ;
#61 = VERTEX_POINT ( 'NONE', #212 ) ;
#62 = DIRECTION ( 'NONE',  ( 1.903218546456022717E-15, 0.8571673007021097801, 0.5150380749100585964 ) ) ;
#63 = DIRECTION ( 'NONE',  ( 4.275831445896958607E-31, 1.000000000000000000, 1.224646799147352961E-16 ) ) ;
#64 = FACE_OUTER_BOUND ( 'NONE', #330, .T. ) ;
#65 = MECHANICAL_CONTEXT ( 'NONE', #57, 'mechanical' ) ;
#66 = CARTESIAN_POINT ( 'NONE',  ( 3.988193568066654462E-14, -2.749999999999997335, 21.00000000000000000 ) ) ;
#67 = EDGE_LOOP ( 'NONE', ( #237, #162, #109 ) ) ;
#68 = CONICAL_SURFACE ( 'NONE', #18, 2.749999999999992006, 1.029744258676649649 ) ;
#69 = DIRECTION ( 'NONE',  ( -3.491481338843133355E-15, 1.224646799147353207E-16, -1.000000000000000000 ) ) ;
#70 = EDGE_LOOP ( 'NONE', ( #250, #327, #51, #41 ) ) ;
#71 = EDGE_CURVE ( 'NONE', #231, #61, #297, .T. ) ;
#72 = AXIS2_PLACEMENT_3D ( 'NONE', #125, #150, #282 ) ;
#73 = CALENDAR_DATE ( 2021, 3, 9 ) ;
#74 = PERSON_AND_ORGANIZATION ( #295, #286 ) ;
#75 = AXIS2_PLACEMENT_3D ( 'NONE', #245, #32, #63 ) ;
#76 = CALENDAR_DATE ( 2021, 3, 9 ) ;
#77 = DIRECTION ( 'NONE',  ( -3.491481338843133355E-15, 1.224646799147353207E-16, -1.000000000000000000 ) ) ;
#78 = EDGE_CURVE ( 'NONE', #247, #142, #259, .T. ) ;
#79 = CARTESIAN_POINT ( 'NONE',  ( 0.0000000000000000000, 0.0000000000000000000, 0.0000000000000000000 ) ) ;
#80 = CARTESIAN_POINT ( 'NONE',  ( 2.304377683636468267E-13, -8.082668874372532400E-15, 66.00000000000000000 ) ) ;
#81 = CC_DESIGN_APPROVAL ( #314, ( #91 ) ) ;
#82 = DIRECTION ( 'NONE',  ( -3.491481338843133355E-15, 1.224646799147353207E-16, -1.000000000000000000 ) ) ;
#83 = COORDINATED_UNIVERSAL_TIME_OFFSET ( 1, 0, .AHEAD. ) ;
#84 = APPROVAL_STATUS ( 'not_yet_approved' ) ;
#85 = DIRECTION ( 'NONE',  ( -5.602705292762884417E-31, -1.000000000000000000, -1.577021341797101998E-16 ) ) ;
#86 = ORIENTED_EDGE ( 'NONE', *, *, #302, .F. ) ;
#87 = AXIS2_PLACEMENT_3D ( 'NONE', #9, #82, #289 ) ;
#88 =( NAMED_UNIT ( * ) PLANE_ANGLE_UNIT ( ) SI_UNIT ( $, .RADIAN. ) );
#89 = CARTESIAN_POINT ( 'NONE',  ( 2.283428795603408836E-13, -8.009190066423689102E-15, 65.40000000000000568 ) ) ;
#90 = ORIENTED_EDGE ( 'NONE', *, *, #104, .T. ) ;
#91 = PRODUCT_DEFINITION ( 'UNKNOWN', '', #20, #194 ) ;
#92 = LINE ( 'NONE', #199, #42 ) ;
#93 = FACE_OUTER_BOUND ( 'NONE', #106, .T. ) ;
#94 = EDGE_CURVE ( 'NONE', #197, #224, #92, .T. ) ;
#95 = AXIS2_PLACEMENT_3D ( 'NONE', #277, #40, #143 ) ;
#96 = APPLICATION_PROTOCOL_DEFINITION ( 'international standard', 'config_control_design', 1994, #177 ) ;
#97 = ADVANCED_FACE ( 'NONE', ( #168 ), #68, .T. ) ;
#98 = PERSON_AND_ORGANIZATION ( #295, #286 ) ;
#99 = APPROVAL_ROLE ( '' ) ;
#100 = AXIS2_PLACEMENT_3D ( 'NONE', #271, #69, #195 ) ;
#101 = CARTESIAN_POINT ( 'NONE',  ( 7.332110811570580046E-14, 2.749999999999992006, 21.00000000000000000 ) ) ;
#102 = CALENDAR_DATE ( 2021, 3, 9 ) ;
#103 = APPROVAL_ROLE ( '' ) ;
#104 = EDGE_CURVE ( 'NONE', #61, #231, #139, .T. ) ;
#105 = FACE_OUTER_BOUND ( 'NONE', #67, .T. ) ;
#106 = EDGE_LOOP ( 'NONE', ( #241, #276, #7, #144 ) ) ;
#107 = DATE_AND_TIME ( #5, #209 ) ;
#108 = ADVANCED_FACE ( 'NONE', ( #119 ), #17, .T. ) ;
#109 = ORIENTED_EDGE ( 'NONE', *, *, #132, .T. ) ;
#110 =( GEOMETRIC_REPRESENTATION_CONTEXT ( 3 ) GLOBAL_UNCERTAINTY_ASSIGNED_CONTEXT ( ( #290 ) ) GLOBAL_UNIT_ASSIGNED_CONTEXT ( ( #200, #88, #45 ) ) REPRESENTATION_CONTEXT ( 'NONE', 'WORKASPACE' ) );
#111 = DIRECTION ( 'NONE',  ( -3.491481338843133355E-15, 1.224646799147353207E-16, -1.000000000000000000 ) ) ;
#112 = DIRECTION ( 'NONE',  ( 4.275831445896958607E-31, 1.000000000000000000, 1.224646799147353454E-16 ) ) ;
#113 = ORIENTED_EDGE ( 'NONE', *, *, #71, .F. ) ;
#114 = CC_DESIGN_PERSON_AND_ORGANIZATION_ASSIGNMENT ( #258, #336, ( #20 ) ) ;
#115 = EDGE_LOOP ( 'NONE', ( #19, #113 ) ) ;
#116 = CIRCLE ( 'NONE', #36, 2.749999999999992006 ) ;
#117 = ADVANCED_FACE ( 'NONE', ( #136 ), #149, .T. ) ;
#118 = PRODUCT ( '29694', '29694', '', ( #65 ) ) ;
#119 = FACE_OUTER_BOUND ( 'NONE', #70, .T. ) ;
#120 = CARTESIAN_POINT ( 'NONE',  ( 5.769207506096312520E-15, -2.023565593020963859E-16, 1.652366702325804404 ) ) ;
#121 = PERSON_AND_ORGANIZATION_ROLE ( 'design_owner' ) ;
#122 = AXIS2_PLACEMENT_3D ( 'NONE', #318, #156, #85 ) ;
#123 = CARTESIAN_POINT ( 'NONE',  ( 3.367778697655206713E-16, -2.749999999999997335, -3.367778697655229393E-16 ) ) ;
#124 = EDGE_CURVE ( 'NONE', #231, #293, #128, .T. ) ;
#125 = CARTESIAN_POINT ( 'NONE',  ( 2.304377683636468267E-13, -8.082668874372532400E-15, 66.00000000000000000 ) ) ;
#126 = COORDINATED_UNIVERSAL_TIME_OFFSET ( 1, 0, .AHEAD. ) ;
#127 = VECTOR ( 'NONE', #223, 1000.000000000000114 ) ;
#128 = LINE ( 'NONE', #234, #127 ) ;
#129 = DATE_AND_TIME ( #161, #214 ) ;
#130 = AXIS2_PLACEMENT_3D ( 'NONE', #196, #246, #219 ) ;
#131 = ORIENTED_EDGE ( 'NONE', *, *, #326, .F. ) ;
#132 = EDGE_CURVE ( 'NONE', #59, #224, #116, .T. ) ;
#133 = ORIENTED_EDGE ( 'NONE', *, *, #238, .F. ) ;
#134 = DIRECTION ( 'NONE',  ( 0.0000000000000000000, 1.000000000000000000, 0.0000000000000000000 ) ) ;
#135 = ORIENTED_EDGE ( 'NONE', *, *, #218, .T. ) ;
#136 = FACE_OUTER_BOUND ( 'NONE', #166, .T. ) ;
#137 = DIRECTION ( 'NONE',  ( -3.491481338843133355E-15, 1.224646799147353207E-16, -1.000000000000000000 ) ) ;
#138 = CC_DESIGN_PERSON_AND_ORGANIZATION_ASSIGNMENT ( #98, #121, ( #118 ) ) ;
#139 = CIRCLE ( 'NONE', #72, 2.150000000000000355 ) ;
#140 = DIRECTION ( 'NONE',  ( 0.0000000000000000000, 1.000000000000000000, 0.0000000000000000000 ) ) ;
#141 = CARTESIAN_POINT ( 'NONE',  ( 0.0000000000000000000, 0.0000000000000000000, 0.0000000000000000000 ) ) ;
#142 = VERTEX_POINT ( 'NONE', #21 ) ;
#143 = DIRECTION ( 'NONE',  ( 1.000000000000000000, 0.0000000000000000000, 0.0000000000000000000 ) ) ;
#144 = ORIENTED_EDGE ( 'NONE', *, *, #308, .F. ) ;
#145 = AXIS2_PLACEMENT_3D ( 'NONE', #79, #153, #257 ) ;
#146 = ORIENTED_EDGE ( 'NONE', *, *, #147, .T. ) ;
#147 = EDGE_CURVE ( 'NONE', #293, #306, #311, .T. ) ;
#148 = DIRECTION ( 'NONE',  ( 5.602705292762884417E-31, 1.000000000000000000, 1.577021341797101998E-16 ) ) ;
#149 = CONICAL_SURFACE ( 'NONE', #208, 2.150000000000000355, 0.7853981633974450594 ) ;
#150 = DIRECTION ( 'NONE',  ( -3.491481338843133355E-15, 1.224646799147353207E-16, -1.000000000000000000 ) ) ;
#151 = PERSON_AND_ORGANIZATION ( #295, #286 ) ;
#152 = ADVANCED_FACE ( 'NONE', ( #64 ), #8, .F. ) ;
#153 = DIRECTION ( 'NONE',  ( -3.491481338843133355E-15, 1.224646799147353207E-16, -1.000000000000000000 ) ) ;
#154 = AXIS2_PLACEMENT_3D ( 'NONE', #80, #54, #158 ) ;
#155 = CC_DESIGN_SECURITY_CLASSIFICATION ( #46, ( #20 ) ) ;
#156 = DIRECTION ( 'NONE',  ( 3.491481338843133355E-15, -1.224646799147353207E-16, 1.000000000000000000 ) ) ;
#157 = DATE_AND_TIME ( #73, #2 ) ;
#158 = DIRECTION ( 'NONE',  ( 0.0000000000000000000, 1.000000000000000000, 0.0000000000000000000 ) ) ;
#159 = FACE_OUTER_BOUND ( 'NONE', #279, .T. ) ;
#160 = EDGE_CURVE ( 'NONE', #306, #142, #173, .T. ) ;
#161 = CALENDAR_DATE ( 2021, 3, 9 ) ;
#162 = ORIENTED_EDGE ( 'NONE', *, *, #238, .T. ) ;
#163 = ADVANCED_FACE ( 'NONE', ( #14 ), #164, .F. ) ;
#164 = PLANE ( 'NONE',  #280 ) ;
#165 = COORDINATED_UNIVERSAL_TIME_OFFSET ( 1, 0, .AHEAD. ) ;
#166 = EDGE_LOOP ( 'NONE', ( #90, #296, #10, #292 ) ) ;
#167 = ADVANCED_FACE ( 'NONE', ( #49 ), #254, .T. ) ;
#168 = FACE_OUTER_BOUND ( 'NONE', #244, .T. ) ;
#169 = CARTESIAN_POINT ( 'NONE',  ( 5.769207506096312520E-15, -2.023565593020963859E-16, 1.652366702325804404 ) ) ;
#170 = ORIENTED_EDGE ( 'NONE', *, *, #176, .T. ) ;
#171 = MANIFOLD_SOLID_BREP ( 'Corps-Déplacer/Copier1[1]', #180 ) ;
#172 = VERTEX_POINT ( 'NONE', #101 ) ;
#173 = CIRCLE ( 'NONE', #43, 2.749999999999994671 ) ;
#174 = MANIFOLD_SOLID_BREP ( 'Corps-Déplacer/Copier1[2]', #60 ) ;
#175 = CARTESIAN_POINT ( 'NONE',  ( 5.769207506096312520E-15, -2.023565593020963859E-16, 1.652366702325804404 ) ) ;
#176 = EDGE_CURVE ( 'NONE', #247, #293, #225, .T. ) ;
#177 = APPLICATION_CONTEXT ( 'configuration controlled 3d designs of mechanical parts and assemblies' ) ;
#178 = CONICAL_SURFACE ( 'NONE', #130, 2.150000000000000355, 0.7853981633974450594 ) ;
#179 = EDGE_CURVE ( 'NONE', #61, #247, #25, .T. ) ;
#180 = CLOSED_SHELL ( 'NONE', ( #117, #167, #152, #108, #325, #163 ) ) ;
#181 = CONICAL_SURFACE ( 'NONE', #122, 2.749999999999992006, 1.029744258676649649 ) ;
#182 = DATE_AND_TIME ( #76, #317 ) ;
#183 = DIRECTION ( 'NONE',  ( 0.0000000000000000000, 1.000000000000000000, 0.0000000000000000000 ) ) ;
#184 = ORIENTED_EDGE ( 'NONE', *, *, #302, .T. ) ;
#185 = CIRCLE ( 'NONE', #253, 2.749999999999994671 ) ;
#186 = CYLINDRICAL_SURFACE ( 'NONE', #87, 2.749999999999993339 ) ;
#187 = COORDINATED_UNIVERSAL_TIME_OFFSET ( 1, 0, .AHEAD. ) ;
#188 = PRODUCT_RELATED_PRODUCT_CATEGORY ( 'detail', '', ( #118 ) ) ;
#189 = ORIENTED_EDGE ( 'NONE', *, *, #218, .F. ) ;
#190 = ORIENTED_EDGE ( 'NONE', *, *, #322, .F. ) ;
#191 = ORIENTED_EDGE ( 'NONE', *, *, #204, .T. ) ;
#192 = VECTOR ( 'NONE', #62, 999.9999999999998863 ) ;
#193 = LINE ( 'NONE', #299, #192 ) ;
#194 = DESIGN_CONTEXT ( 'detailed design', #177, 'design' ) ;
#195 = DIRECTION ( 'NONE',  ( 0.0000000000000000000, 1.000000000000000000, 0.0000000000000000000 ) ) ;
#196 = CARTESIAN_POINT ( 'NONE',  ( 2.304377683636468267E-13, -8.082668874372532400E-15, 66.00000000000000000 ) ) ;
#197 = VERTEX_POINT ( 'NONE', #30 ) ;
#198 = CARTESIAN_POINT ( 'NONE',  ( 2.304377683636468267E-13, -8.082668874372532400E-15, 66.00000000000000000 ) ) ;
#199 = CARTESIAN_POINT ( 'NONE',  ( 5.769207506096310942E-15, -2.749999999999992006, 1.652366702325803960 ) ) ;
#200 =( LENGTH_UNIT ( ) NAMED_UNIT ( * ) SI_UNIT ( .MILLI., .METRE. ) );
#201 = CC_DESIGN_APPROVAL ( #213, ( #20 ) ) ;
#202 = ADVANCED_FACE ( 'NONE', ( #6 ), #186, .T. ) ;
#203 = APPLICATION_PROTOCOL_DEFINITION ( 'international standard', 'config_control_design', 1994, #57 ) ;
#204 = EDGE_CURVE ( 'NONE', #142, #306, #230, .T. ) ;
#205 = PRODUCT_DEFINITION_SHAPE ( 'NONE', 'NONE',  #91 ) ;
#206 = DIRECTION ( 'NONE',  ( -3.491481338843133355E-15, 1.224646799147353207E-16, -1.000000000000000000 ) ) ;
#207 = SECURITY_CLASSIFICATION_LEVEL ( 'unclassified' ) ;
#208 = AXIS2_PLACEMENT_3D ( 'NONE', #198, #111, #261 ) ;
#209 = LOCAL_TIME ( 9, 21, 50.00000000000000000, #165 ) ;
#210 = APPROVAL_STATUS ( 'not_yet_approved' ) ;
#211 = DIRECTION ( 'NONE',  ( -3.491481338843133355E-15, 1.224646799147353207E-16, -1.000000000000000000 ) ) ;
#212 = CARTESIAN_POINT ( 'NONE',  ( 2.304377683636468267E-13, 2.149999999999992362, 66.00000000000000000 ) ) ;
#213 = APPROVAL ( #210, 'UNSPECIFIED' ) ;
#214 = LOCAL_TIME ( 9, 21, 50.00000000000000000, #332 ) ;
#215 = DIRECTION ( 'NONE',  ( -3.491481338843133355E-15, 1.224646799147353207E-16, -1.000000000000000000 ) ) ;
#216 = ORIENTED_EDGE ( 'NONE', *, *, #132, .F. ) ;
#217 = CARTESIAN_POINT ( 'NONE',  ( 5.769207506096310942E-15, -2.749999999999992006, 1.652366702325803960 ) ) ;
#218 = EDGE_CURVE ( 'NONE', #172, #335, #185, .T. ) ;
#219 = DIRECTION ( 'NONE',  ( 0.0000000000000000000, 1.000000000000000000, 0.0000000000000000000 ) ) ;
#220 = LINE ( 'NONE', #303, #24 ) ;
#221 = ORIENTED_EDGE ( 'NONE', *, *, #78, .F. ) ;
#222 = DIRECTION ( 'NONE',  ( -4.275831445896958607E-31, -1.000000000000000000, -1.224646799147353207E-16 ) ) ;
#223 = DIRECTION ( 'NONE',  ( -2.382254525458724175E-15, -0.7071067811865451302, -0.7071067811865499042 ) ) ;
#224 = VERTEX_POINT ( 'NONE', #217 ) ;
#225 = CIRCLE ( 'NONE', #333, 2.750000000000000000 ) ;
#226 = DIRECTION ( 'NONE',  ( 3.491481338843133355E-15, -1.224646799147353207E-16, 1.000000000000000000 ) ) ;
#227 = AXIS2_PLACEMENT_3D ( 'NONE', #233, #211, #319 ) ;
#228 = DIRECTION ( 'NONE',  ( -3.491481338843133355E-15, 1.224646799147353207E-16, -1.000000000000000000 ) ) ;
#229 = VECTOR ( 'NONE', #228, 1000.000000000000000 ) ;
#230 = CIRCLE ( 'NONE', #227, 2.749999999999994671 ) ;
#231 = VERTEX_POINT ( 'NONE', #320 ) ;
#232 = CARTESIAN_POINT ( 'NONE',  ( 1.175853647621662434E-30, 2.749999999999997335, 3.367778697655217560E-16 ) ) ;
#233 = CARTESIAN_POINT ( 'NONE',  ( 7.332110811570580046E-14, -2.571758278209441661E-15, 21.00000000000000000 ) ) ;
#234 = CARTESIAN_POINT ( 'NONE',  ( 2.307010674254634909E-13, -2.150000000000008793, 66.00000000000000000 ) ) ;
#235 = AXIS2_PLACEMENT_3D ( 'NONE', #1, #301, #222 ) ;
#236 = DIRECTION ( 'NONE',  ( -3.491481338843133355E-15, 1.224646799147353207E-16, -1.000000000000000000 ) ) ;
#237 = ORIENTED_EDGE ( 'NONE', *, *, #94, .F. ) ;
#238 = EDGE_CURVE ( 'NONE', #197, #59, #193, .T. ) ;
#239 = CARTESIAN_POINT ( 'NONE',  ( 1.175853647621660683E-30, 2.749999999999993339, 3.367778697655213616E-16 ) ) ;
#240 = SHAPE_DEFINITION_REPRESENTATION ( #205, #278 ) ;
#241 = ORIENTED_EDGE ( 'NONE', *, *, #124, .F. ) ;
#242 = DIRECTION ( 'NONE',  ( -5.602705292762884417E-31, -1.000000000000000000, -1.577021341797101998E-16 ) ) ;
#243 = CARTESIAN_POINT ( 'NONE',  ( 1.511687717077887248E-13, -2.750000000000007994, 65.40000000000000568 ) ) ;
#244 = EDGE_LOOP ( 'NONE', ( #133, #249, #184 ) ) ;
#245 = CARTESIAN_POINT ( 'NONE',  ( 0.0000000000000000000, 0.0000000000000000000, 0.0000000000000000000 ) ) ;
#246 = DIRECTION ( 'NONE',  ( -3.491481338843133355E-15, 1.224646799147353207E-16, -1.000000000000000000 ) ) ;
#247 = VERTEX_POINT ( 'NONE', #315 ) ;
#248 = APPROVAL ( #84, 'UNSPECIFIED' ) ;
#249 = ORIENTED_EDGE ( 'NONE', *, *, #94, .T. ) ;
#250 = ORIENTED_EDGE ( 'NONE', *, *, #147, .F. ) ;
#251 = AXIS2_PLACEMENT_3D ( 'NONE', #89, #137, #321 ) ;
#252 = CC_DESIGN_PERSON_AND_ORGANIZATION_ASSIGNMENT ( #23, #256, ( #91 ) ) ;
#253 = AXIS2_PLACEMENT_3D ( 'NONE', #55, #236, #134 ) ;
#254 = CYLINDRICAL_SURFACE ( 'NONE', #145, 2.749999999999997335 ) ;
#255 = CIRCLE ( 'NONE', #100, 2.749999999999994671 ) ;
#256 = PERSON_AND_ORGANIZATION_ROLE ( 'creator' ) ;
#257 = DIRECTION ( 'NONE',  ( 4.275831445896958607E-31, 1.000000000000000000, 1.224646799147352961E-16 ) ) ;
#258 = PERSON_AND_ORGANIZATION ( #295, #286 ) ;
#259 = LINE ( 'NONE', #232, #28 ) ;
#260 = PLANE ( 'NONE',  #235 ) ;
#261 = DIRECTION ( 'NONE',  ( 0.0000000000000000000, 1.000000000000000000, 0.0000000000000000000 ) ) ;
#262 = ORIENTED_EDGE ( 'NONE', *, *, #322, .T. ) ;
#263 = DIRECTION ( 'NONE',  ( -2.468850131082272838E-15, 0.7071067811865453523, -0.7071067811865496822 ) ) ;
#264 = ADVANCED_FACE ( 'NONE', ( #159 ), #260, .T. ) ;
#265 = CIRCLE ( 'NONE', #11, 2.749999999999992006 ) ;
#266 = CARTESIAN_POINT ( 'NONE',  ( 2.304377683636468267E-13, 2.149999999999992362, 66.00000000000000000 ) ) ;
#267 = DIRECTION ( 'NONE',  ( 3.491481338843133355E-15, -1.224646799147353207E-16, 1.000000000000000000 ) ) ;
#268 = CC_DESIGN_DATE_AND_TIME_ASSIGNMENT ( #47, #3, ( #91 ) ) ;
#269 = EDGE_LOOP ( 'NONE', ( #131, #262, #304, #86 ) ) ;
#270 = CARTESIAN_POINT ( 'NONE',  ( 7.332110811570580046E-14, 2.062169701160046547E-32, 21.00000000000000000 ) ) ;
#271 = CARTESIAN_POINT ( 'NONE',  ( 7.332110811570580046E-14, -2.571758278209441661E-15, 21.00000000000000000 ) ) ;
#272 = VECTOR ( 'NONE', #215, 1000.000000000000000 ) ;
#273 = LOCAL_TIME ( 9, 21, 50.00000000000000000, #83 ) ;
#274 = DIRECTION ( 'NONE',  ( -3.491481338843133355E-15, 1.224646799147353207E-16, -1.000000000000000000 ) ) ;
#275 = CC_DESIGN_PERSON_AND_ORGANIZATION_ASSIGNMENT ( #309, #312, ( #46 ) ) ;
#276 = ORIENTED_EDGE ( 'NONE', *, *, #71, .T. ) ;
#277 = CARTESIAN_POINT ( 'NONE',  ( 0.0000000000000000000, 0.0000000000000000000, 0.0000000000000000000 ) ) ;
#278 = ADVANCED_BREP_SHAPE_REPRESENTATION ( '29694', ( #171, #174, #95 ), #110 ) ;
#279 = EDGE_LOOP ( 'NONE', ( #189, #190 ) ) ;
#280 = AXIS2_PLACEMENT_3D ( 'NONE', #29, #206, #284 ) ;
#281 = APPROVAL_PERSON_ORGANIZATION ( #151, #248, #103 ) ;
#282 = DIRECTION ( 'NONE',  ( 0.0000000000000000000, 1.000000000000000000, 0.0000000000000000000 ) ) ;
#283 = AXIS2_PLACEMENT_3D ( 'NONE', #141, #16, #112 ) ;
#284 = DIRECTION ( 'NONE',  ( 4.275831445896958607E-31, 1.000000000000000000, 1.224646799147353207E-16 ) ) ;
#285 = PERSON_AND_ORGANIZATION_ROLE ( 'design_supplier' ) ;
#286 = ORGANIZATION ( 'UNSPECIFIED', 'UNSPECIFIED', '' ) ;
#287 = APPROVAL_DATE_TIME ( #129, #314 ) ;
#288 = ORIENTED_EDGE ( 'NONE', *, *, #204, .F. ) ;
#289 = DIRECTION ( 'NONE',  ( 4.275831445896958607E-31, 1.000000000000000000, 1.224646799147353454E-16 ) ) ;
#290 = UNCERTAINTY_MEASURE_WITH_UNIT (LENGTH_MEASURE( 1.000000000000000082E-05 ), #200, 'distance_accuracy_value', 'NONE');
#291 = APPROVAL_DATE_TIME ( #157, #213 ) ;
#292 = ORIENTED_EDGE ( 'NONE', *, *, #179, .F. ) ;
#293 = VERTEX_POINT ( 'NONE', #243 ) ;
#294 = CARTESIAN_POINT ( 'NONE',  ( 7.332110811570580046E-14, -2.571758278209441661E-15, 21.00000000000000000 ) ) ;
#295 = PERSON ( 'UNSPECIFIED', 'UNSPECIFIED', 'UNSPECIFIED', ('UNSPECIFIED'), ('UNSPECIFIED'), ('UNSPECIFIED') ) ;
#296 = ORIENTED_EDGE ( 'NONE', *, *, #124, .T. ) ;
#297 = CIRCLE ( 'NONE', #154, 2.150000000000000355 ) ;
#298 = CC_DESIGN_APPROVAL ( #248, ( #46 ) ) ;
#299 = CARTESIAN_POINT ( 'NONE',  ( 6.105985375861834966E-15, 2.749999999999992006, 1.652366702325804848 ) ) ;
#300 = ADVANCED_FACE ( 'NONE', ( #324 ), #12, .T. ) ;
#301 = DIRECTION ( 'NONE',  ( 3.491481338843133355E-15, -1.224646799147353207E-16, 1.000000000000000000 ) ) ;
#302 = EDGE_CURVE ( 'NONE', #224, #59, #265, .T. ) ;
#303 = CARTESIAN_POINT ( 'NONE',  ( 3.367778697655201783E-16, -2.749999999999993339, -3.367778697655224463E-16 ) ) ;
#304 = ORIENTED_EDGE ( 'NONE', *, *, #4, .T. ) ;
#305 = APPROVAL_PERSON_ORGANIZATION ( #53, #213, #99 ) ;
#306 = VERTEX_POINT ( 'NONE', #37 ) ;
#307 = EDGE_LOOP ( 'NONE', ( #135, #13, #216, #38 ) ) ;
#308 = EDGE_CURVE ( 'NONE', #293, #247, #52, .T. ) ;
#309 = PERSON_AND_ORGANIZATION ( #295, #286 ) ;
#310 = VECTOR ( 'NONE', #263, 1000.000000000000000 ) ;
#311 = LINE ( 'NONE', #123, #229 ) ;
#312 = PERSON_AND_ORGANIZATION_ROLE ( 'classification_officer' ) ;
#313 = CARTESIAN_POINT ( 'NONE',  ( 2.283428795603408836E-13, -8.009190066423689102E-15, 65.40000000000000568 ) ) ;
#314 = APPROVAL ( #48, 'UNSPECIFIED' ) ;
#315 = CARTESIAN_POINT ( 'NONE',  ( 2.283428795603408836E-13, 2.749999999999992006, 65.40000000000000568 ) ) ;
#316 = AXIS2_PLACEMENT_3D ( 'NONE', #270, #267, #33 ) ;
#317 = LOCAL_TIME ( 9, 21, 50.00000000000000000, #126 ) ;
#318 = CARTESIAN_POINT ( 'NONE',  ( 5.769207506096312520E-15, -2.023565593020963859E-16, 1.652366702325804404 ) ) ;
#319 = DIRECTION ( 'NONE',  ( 0.0000000000000000000, 1.000000000000000000, 0.0000000000000000000 ) ) ;
#320 = CARTESIAN_POINT ( 'NONE',  ( 2.296903624277849323E-13, -2.150000000000008793, 66.00000000000000000 ) ) ;
#321 = DIRECTION ( 'NONE',  ( 0.0000000000000000000, 1.000000000000000000, 0.0000000000000000000 ) ) ;
#322 = EDGE_CURVE ( 'NONE', #335, #172, #255, .T. ) ;
#323 = DIRECTION ( 'NONE',  ( -3.491481338843133355E-15, 1.224646799147353207E-16, -1.000000000000000000 ) ) ;
#324 = FACE_OUTER_BOUND ( 'NONE', #307, .T. ) ;
#325 = ADVANCED_FACE ( 'NONE', ( #93 ), #178, .T. ) ;
#326 = EDGE_CURVE ( 'NONE', #335, #224, #220, .T. ) ;
#327 = ORIENTED_EDGE ( 'NONE', *, *, #308, .T. ) ;
#328 = APPROVAL_PERSON_ORGANIZATION ( #74, #314, #22 ) ;
#329 = CC_DESIGN_PERSON_AND_ORGANIZATION_ASSIGNMENT ( #56, #285, ( #20 ) ) ;
#330 = EDGE_LOOP ( 'NONE', ( #191, #337 ) ) ;
#331 = DIRECTION ( 'NONE',  ( -3.491481338843133355E-15, 1.224646799147353207E-16, -1.000000000000000000 ) ) ;
#332 = COORDINATED_UNIVERSAL_TIME_OFFSET ( 1, 0, .AHEAD. ) ;
#333 = AXIS2_PLACEMENT_3D ( 'NONE', #313, #77, #183 ) ;
#334 = CARTESIAN_POINT ( 'NONE',  ( 6.105985375861834966E-15, 2.749999999999992006, 1.652366702325804848 ) ) ;
#335 = VERTEX_POINT ( 'NONE', #66 ) ;
#336 = PERSON_AND_ORGANIZATION_ROLE ( 'creator' ) ;
#337 = ORIENTED_EDGE ( 'NONE', *, *, #160, .T. ) ;
ENDSEC;
END-ISO-10303-21;
