ISO-10303-21;
HEADER;
FILE_DESCRIPTION (( 'STEP AP203' ),
    '1' );
FILE_NAME ('29693.step',
    '2021-09-03T07:21:49',
    ( '' ),
    ( '' ),
    'SwSTEP 2.0',
    'SolidWorks 2019',
    '' );
FILE_SCHEMA (( 'CONFIG_CONTROL_DESIGN' ));
ENDSEC;

DATA;
#1 = DIRECTION ( 'NONE',  ( 0.0000000000000000000, 1.000000000000000000, 0.0000000000000000000 ) ) ;
#2 =( GEOMETRIC_REPRESENTATION_CONTEXT ( 3 ) GLOBAL_UNCERTAINTY_ASSIGNED_CONTEXT ( ( #85 ) ) GLOBAL_UNIT_ASSIGNED_CONTEXT ( ( #13, #182, #284 ) ) REPRESENTATION_CONTEXT ( 'NONE', 'WORKASPACE' ) );
#3 = ORIENTED_EDGE ( 'NONE', *, *, #164, .F. ) ;
#4 = EDGE_LOOP ( 'NONE', ( #138, #270, #78, #291 ) ) ;
#5 = ORIENTED_EDGE ( 'NONE', *, *, #70, .F. ) ;
#6 = VERTEX_POINT ( 'NONE', #206 ) ;
#7 = LINE ( 'NONE', #180, #330 ) ;
#8 = DATE_AND_TIME ( #30, #223 ) ;
#9 = ORIENTED_EDGE ( 'NONE', *, *, #25, .T. ) ;
#10 = CARTESIAN_POINT ( 'NONE',  ( 7.332110811570580046E-14, -2.571758278209441661E-15, 21.00000000000000000 ) ) ;
#11 = DIRECTION ( 'NONE',  ( -3.491481338843133355E-15, 1.224646799147353207E-16, -1.000000000000000000 ) ) ;
#12 = DATE_AND_TIME ( #151, #74 ) ;
#13 =( LENGTH_UNIT ( ) NAMED_UNIT ( * ) SI_UNIT ( .MILLI., .METRE. ) );
#14 = CARTESIAN_POINT ( 'NONE',  ( 2.306949441914677932E-13, -2.100000000000009859, 66.00000000000000000 ) ) ;
#15 = CARTESIAN_POINT ( 'NONE',  ( 0.0000000000000000000, 0.0000000000000000000, 0.0000000000000000000 ) ) ;
#16 = FACE_OUTER_BOUND ( 'NONE', #91, .T. ) ;
#17 = CONICAL_SURFACE ( 'NONE', #213, 2.100000000000001421, 0.7853981633974450594 ) ;
#18 = ORIENTED_EDGE ( 'NONE', *, *, #100, .F. ) ;
#19 = ORGANIZATION ( 'UNSPECIFIED', 'UNSPECIFIED', '' ) ;
#20 = CARTESIAN_POINT ( 'NONE',  ( 5.664312824167289689E-15, -2.699999999999993072, 1.622323671374426235 ) ) ;
#21 = VERTEX_POINT ( 'NONE', #68 ) ;
#22 = LINE ( 'NONE', #244, #187 ) ;
#23 = PERSON_AND_ORGANIZATION_ROLE ( 'creator' ) ;
#24 = ORIENTED_EDGE ( 'NONE', *, *, #160, .T. ) ;
#25 = EDGE_CURVE ( 'NONE', #6, #316, #28, .T. ) ;
#26 = EDGE_LOOP ( 'NONE', ( #287, #222, #109, #241 ) ) ;
#27 = COORDINATED_UNIVERSAL_TIME_OFFSET ( 1, 0, .AHEAD. ) ;
#28 = LINE ( 'NONE', #14, #161 ) ;
#29 = CIRCLE ( 'NONE', #82, 2.699999999999995737 ) ;
#30 = CALENDAR_DATE ( 2021, 3, 9 ) ;
#31 = APPROVAL_PERSON_ORGANIZATION ( #333, #133, #174 ) ;
#32 = PERSON_AND_ORGANIZATION ( #71, #19 ) ;
#33 = CYLINDRICAL_SURFACE ( 'NONE', #60, 2.699999999999994404 ) ;
#34 = DIRECTION ( 'NONE',  ( 1.903218546456022717E-15, 0.8571673007021097801, 0.5150380749100585964 ) ) ;
#35 = EDGE_CURVE ( 'NONE', #63, #316, #186, .T. ) ;
#36 = CARTESIAN_POINT ( 'NONE',  ( 7.332110811570580046E-14, -2.571758278209441661E-15, 21.00000000000000000 ) ) ;
#37 = PRODUCT_DEFINITION ( 'UNKNOWN', '', #257, #203 ) ;
#38 = CARTESIAN_POINT ( 'NONE',  ( 5.994967459937075851E-15, 2.699999999999993072, 1.622323671374427123 ) ) ;
#39 = CIRCLE ( 'NONE', #234, 2.100000000000001421 ) ;
#40 = DIRECTION ( 'NONE',  ( -3.491481338843133355E-15, 1.224646799147353207E-16, -1.000000000000000000 ) ) ;
#41 = CONICAL_SURFACE ( 'NONE', #125, 2.699999999999993072, 1.029744258676649649 ) ;
#42 = VECTOR ( 'NONE', #34, 999.9999999999998863 ) ;
#43 = ADVANCED_FACE ( 'NONE', ( #158 ), #326, .T. ) ;
#44 = ORIENTED_EDGE ( 'NONE', *, *, #226, .T. ) ;
#45 = ORIENTED_EDGE ( 'NONE', *, *, #160, .F. ) ;
#46 = DIRECTION ( 'NONE',  ( -3.491481338843133355E-15, 1.224646799147353207E-16, -1.000000000000000000 ) ) ;
#47 = APPLICATION_CONTEXT ( 'configuration controlled 3d designs of mechanical parts and assemblies' ) ;
#48 = ADVANCED_FACE ( 'NONE', ( #128 ), #41, .T. ) ;
#49 = ORIENTED_EDGE ( 'NONE', *, *, #266, .F. ) ;
#50 = CYLINDRICAL_SURFACE ( 'NONE', #283, 2.699999999999998401 ) ;
#51 = ORIENTED_EDGE ( 'NONE', *, *, #103, .T. ) ;
#52 = SECURITY_CLASSIFICATION_LEVEL ( 'unclassified' ) ;
#53 = EDGE_LOOP ( 'NONE', ( #45, #44, #76 ) ) ;
#54 = PLANE ( 'NONE',  #322 ) ;
#55 = EDGE_LOOP ( 'NONE', ( #299, #3 ) ) ;
#56 = PRODUCT ( '29693', '29693', '', ( #227 ) ) ;
#57 = FACE_OUTER_BOUND ( 'NONE', #163, .T. ) ;
#58 = ORIENTED_EDGE ( 'NONE', *, *, #255, .T. ) ;
#59 = DIRECTION ( 'NONE',  ( 4.275831445896958607E-31, 1.000000000000000000, 1.224646799147353207E-16 ) ) ;
#60 = AXIS2_PLACEMENT_3D ( 'NONE', #15, #152, #247 ) ;
#61 = CIRCLE ( 'NONE', #77, 2.699999999999995737 ) ;
#62 = CARTESIAN_POINT ( 'NONE',  ( 1.511626484737929767E-13, -2.700000000000008615, 65.40000000000000568 ) ) ;
#63 = VERTEX_POINT ( 'NONE', #147 ) ;
#64 = APPROVAL_DATE_TIME ( #8, #133 ) ;
#65 = CARTESIAN_POINT ( 'NONE',  ( 2.283428795603408836E-13, -8.009190066423689102E-15, 65.40000000000000568 ) ) ;
#66 = DIRECTION ( 'NONE',  ( -3.491481338843133355E-15, 1.224646799147353207E-16, -1.000000000000000000 ) ) ;
#67 = DIRECTION ( 'NONE',  ( 3.491481338843133355E-15, -1.224646799147353207E-16, 1.000000000000000000 ) ) ;
#68 = CARTESIAN_POINT ( 'NONE',  ( 7.332110811570580046E-14, 2.699999999999993072, 21.00000000000000000 ) ) ;
#69 = DIRECTION ( 'NONE',  ( -3.491481338843133355E-15, 1.224646799147353207E-16, -1.000000000000000000 ) ) ;
#70 = EDGE_CURVE ( 'NONE', #316, #114, #324, .T. ) ;
#71 = PERSON ( 'UNSPECIFIED', 'UNSPECIFIED', 'UNSPECIFIED', ('UNSPECIFIED'), ('UNSPECIFIED'), ('UNSPECIFIED') ) ;
#72 = APPLICATION_CONTEXT ( 'configuration controlled 3d designs of mechanical parts and assemblies' ) ;
#73 = VECTOR ( 'NONE', #66, 1000.000000000000000 ) ;
#74 = LOCAL_TIME ( 9, 21, 49.00000000000000000, #27 ) ;
#75 = APPROVAL_DATE_TIME ( #101, #188 ) ;
#76 = ORIENTED_EDGE ( 'NONE', *, *, #111, .T. ) ;
#77 = AXIS2_PLACEMENT_3D ( 'NONE', #224, #153, #229 ) ;
#78 = ORIENTED_EDGE ( 'NONE', *, *, #111, .F. ) ;
#79 = DIRECTION ( 'NONE',  ( 0.0000000000000000000, 1.000000000000000000, 0.0000000000000000000 ) ) ;
#80 = EDGE_CURVE ( 'NONE', #21, #216, #189, .T. ) ;
#81 = DIRECTION ( 'NONE',  ( -3.491481338843133355E-15, 1.224646799147353207E-16, -1.000000000000000000 ) ) ;
#82 = AXIS2_PLACEMENT_3D ( 'NONE', #312, #209, #79 ) ;
#83 = CARTESIAN_POINT ( 'NONE',  ( 2.283428795603408836E-13, -8.009190066423689102E-15, 65.40000000000000568 ) ) ;
#84 = SECURITY_CLASSIFICATION ( '', '', #52 ) ;
#85 = UNCERTAINTY_MEASURE_WITH_UNIT (LENGTH_MEASURE( 1.000000000000000082E-05 ), #13, 'distance_accuracy_value', 'NONE');
#86 = VERTEX_POINT ( 'NONE', #154 ) ;
#87 = ORIENTED_EDGE ( 'NONE', *, *, #210, .T. ) ;
#88 = FACE_OUTER_BOUND ( 'NONE', #55, .T. ) ;
#89 = DIRECTION ( 'NONE',  ( -3.491481338843133355E-15, 1.224646799147353207E-16, -1.000000000000000000 ) ) ;
#90 = CLOSED_SHELL ( 'NONE', ( #95, #48, #215, #137, #327 ) ) ;
#91 = EDGE_LOOP ( 'NONE', ( #258, #18 ) ) ;
#92 = CARTESIAN_POINT ( 'NONE',  ( 3.306546357697840421E-16, -2.699999999999998401, -3.306546357697863101E-16 ) ) ;
#93 = CARTESIAN_POINT ( 'NONE',  ( 5.664312824167290478E-15, -1.986773491329674064E-16, 1.622323671374426679 ) ) ;
#94 = PERSON_AND_ORGANIZATION ( #71, #19 ) ;
#95 = ADVANCED_FACE ( 'NONE', ( #251 ), #33, .T. ) ;
#96 = APPROVAL_ROLE ( '' ) ;
#97 = VECTOR ( 'NONE', #201, 1000.000000000000000 ) ;
#98 = PERSON_AND_ORGANIZATION ( #71, #19 ) ;
#99 = DIRECTION ( 'NONE',  ( 0.0000000000000000000, 1.000000000000000000, 0.0000000000000000000 ) ) ;
#100 = EDGE_CURVE ( 'NONE', #6, #144, #267, .T. ) ;
#101 = DATE_AND_TIME ( #230, #149 ) ;
#102 = AXIS2_PLACEMENT_3D ( 'NONE', #136, #237, #129 ) ;
#103 = EDGE_CURVE ( 'NONE', #143, #114, #29, .T. ) ;
#104 = ORIENTED_EDGE ( 'NONE', *, *, #313, .T. ) ;
#105 = EDGE_LOOP ( 'NONE', ( #51, #190 ) ) ;
#106 = AXIS2_PLACEMENT_3D ( 'NONE', #10, #89, #1 ) ;
#107 = CARTESIAN_POINT ( 'NONE',  ( 2.304377683636468267E-13, -8.082668874372532400E-15, 66.00000000000000000 ) ) ;
#108 = EDGE_LOOP ( 'NONE', ( #5, #104, #58, #311 ) ) ;
#109 = ORIENTED_EDGE ( 'NONE', *, *, #208, .T. ) ;
#110 = ORIENTED_EDGE ( 'NONE', *, *, #70, .T. ) ;
#111 = EDGE_CURVE ( 'NONE', #171, #118, #274, .T. ) ;
#112 = DIRECTION ( 'NONE',  ( 4.275831445896958607E-31, 1.000000000000000000, 1.224646799147353207E-16 ) ) ;
#113 = DIRECTION ( 'NONE',  ( 4.275831445896958607E-31, 1.000000000000000000, 1.224646799147353207E-16 ) ) ;
#114 = VERTEX_POINT ( 'NONE', #260 ) ;
#115 = CC_DESIGN_PERSON_AND_ORGANIZATION_ASSIGNMENT ( #98, #155, ( #257 ) ) ;
#116 = DIRECTION ( 'NONE',  ( 1.798245827342160317E-15, -0.8571673007021098911, 0.5150380749100582634 ) ) ;
#117 = APPROVAL_STATUS ( 'not_yet_approved' ) ;
#118 = VERTEX_POINT ( 'NONE', #20 ) ;
#119 = APPROVAL_PERSON_ORGANIZATION ( #94, #218, #200 ) ;
#120 = DIRECTION ( 'NONE',  ( 4.275831445896958607E-31, 1.000000000000000000, 1.224646799147353207E-16 ) ) ;
#121 = CC_DESIGN_PERSON_AND_ORGANIZATION_ASSIGNMENT ( #261, #195, ( #84 ) ) ;
#122 = DIRECTION ( 'NONE',  ( 0.0000000000000000000, 1.000000000000000000, 0.0000000000000000000 ) ) ;
#123 = CARTESIAN_POINT ( 'NONE',  ( 3.982336510570629574E-14, -2.699999999999998401, 21.00000000000000000 ) ) ;
#124 = COORDINATED_UNIVERSAL_TIME_OFFSET ( 1, 0, .AHEAD. ) ;
#125 = AXIS2_PLACEMENT_3D ( 'NONE', #280, #272, #228 ) ;
#126 = CIRCLE ( 'NONE', #135, 2.700000000000001066 ) ;
#127 = COORDINATED_UNIVERSAL_TIME_OFFSET ( 1, 0, .AHEAD. ) ;
#128 = FACE_OUTER_BOUND ( 'NONE', #53, .T. ) ;
#129 = DIRECTION ( 'NONE',  ( 1.000000000000000000, 0.0000000000000000000, 0.0000000000000000000 ) ) ;
#130 = AXIS2_PLACEMENT_3D ( 'NONE', #36, #276, #122 ) ;
#131 = VECTOR ( 'NONE', #319, 1000.000000000000000 ) ;
#132 = PERSON_AND_ORGANIZATION_ROLE ( 'design_owner' ) ;
#133 = APPROVAL ( #296, 'UNSPECIFIED' ) ;
#134 = ORIENTED_EDGE ( 'NONE', *, *, #35, .F. ) ;
#135 = AXIS2_PLACEMENT_3D ( 'NONE', #83, #220, #265 ) ;
#136 = CARTESIAN_POINT ( 'NONE',  ( 0.0000000000000000000, 0.0000000000000000000, 0.0000000000000000000 ) ) ;
#137 = ADVANCED_FACE ( 'NONE', ( #140 ), #335, .T. ) ;
#138 = ORIENTED_EDGE ( 'NONE', *, *, #80, .T. ) ;
#139 = CC_DESIGN_APPROVAL ( #188, ( #257 ) ) ;
#140 = FACE_OUTER_BOUND ( 'NONE', #26, .T. ) ;
#141 = PRODUCT_RELATED_PRODUCT_CATEGORY ( 'detail', '', ( #56 ) ) ;
#142 = CARTESIAN_POINT ( 'NONE',  ( 2.304377683636468267E-13, 2.099999999999993427, 66.00000000000000000 ) ) ;
#143 = VERTEX_POINT ( 'NONE', #239 ) ;
#144 = VERTEX_POINT ( 'NONE', #242 ) ;
#145 = DIRECTION ( 'NONE',  ( -3.491481338843133355E-15, 1.224646799147353207E-16, -1.000000000000000000 ) ) ;
#146 = APPLICATION_PROTOCOL_DEFINITION ( 'international standard', 'config_control_design', 1994, #47 ) ;
#147 = CARTESIAN_POINT ( 'NONE',  ( 2.283428795603408836E-13, 2.699999999999993072, 65.40000000000000568 ) ) ;
#148 = CC_DESIGN_PERSON_AND_ORGANIZATION_ASSIGNMENT ( #310, #132, ( #56 ) ) ;
#149 = LOCAL_TIME ( 9, 21, 49.00000000000000000, #127 ) ;
#150 = DATE_AND_TIME ( #178, #176 ) ;
#151 = CALENDAR_DATE ( 2021, 3, 9 ) ;
#152 = DIRECTION ( 'NONE',  ( -3.491481338843133355E-15, 1.224646799147353207E-16, -1.000000000000000000 ) ) ;
#153 = DIRECTION ( 'NONE',  ( -3.491481338843133355E-15, 1.224646799147353207E-16, -1.000000000000000000 ) ) ;
#154 = CARTESIAN_POINT ( 'NONE',  ( 0.0000000000000000000, 0.0000000000000000000, 0.0000000000000000000 ) ) ;
#155 = PERSON_AND_ORGANIZATION_ROLE ( 'creator' ) ;
#156 = CARTESIAN_POINT ( 'NONE',  ( 1.154474490392176494E-30, 2.699999999999994404, 3.306546357697846831E-16 ) ) ;
#157 = CIRCLE ( 'NONE', #106, 2.699999999999995737 ) ;
#158 = FACE_OUTER_BOUND ( 'NONE', #175, .T. ) ;
#159 = DIRECTION ( 'NONE',  ( 0.0000000000000000000, 1.000000000000000000, 0.0000000000000000000 ) ) ;
#160 = EDGE_CURVE ( 'NONE', #86, #118, #7, .T. ) ;
#161 = VECTOR ( 'NONE', #184, 1000.000000000000114 ) ;
#162 = CC_DESIGN_APPROVAL ( #218, ( #84 ) ) ;
#163 = EDGE_LOOP ( 'NONE', ( #300, #9, #134, #49 ) ) ;
#164 = EDGE_CURVE ( 'NONE', #216, #21, #157, .T. ) ;
#165 = DIRECTION ( 'NONE',  ( 2.853229547240356937E-31, 1.000000000000000000, 1.606225440719270065E-16 ) ) ;
#166 = CARTESIAN_POINT ( 'NONE',  ( 0.0000000000000000000, 0.0000000000000000000, 0.0000000000000000000 ) ) ;
#167 = ORIENTED_EDGE ( 'NONE', *, *, #313, .F. ) ;
#168 = ORIENTED_EDGE ( 'NONE', *, *, #35, .T. ) ;
#169 = CARTESIAN_POINT ( 'NONE',  ( 7.332110811570580046E-14, 2.024675706593500928E-32, 21.00000000000000000 ) ) ;
#170 = ADVANCED_FACE ( 'NONE', ( #221 ), #199, .T. ) ;
#171 = VERTEX_POINT ( 'NONE', #295 ) ;
#172 = FACE_OUTER_BOUND ( 'NONE', #105, .T. ) ;
#173 = ADVANCED_FACE ( 'NONE', ( #57 ), #17, .T. ) ;
#174 = APPROVAL_ROLE ( '' ) ;
#175 = EDGE_LOOP ( 'NONE', ( #336, #262, #315, #167 ) ) ;
#176 = LOCAL_TIME ( 9, 21, 49.00000000000000000, #325 ) ;
#177 = SHAPE_DEFINITION_REPRESENTATION ( #288, #214 ) ;
#178 = CALENDAR_DATE ( 2021, 3, 9 ) ;
#179 = ADVANCED_FACE ( 'NONE', ( #16 ), #245, .F. ) ;
#180 = CARTESIAN_POINT ( 'NONE',  ( 5.664312824167289689E-15, -2.699999999999993072, 1.622323671374426235 ) ) ;
#181 = DIRECTION ( 'NONE',  ( -2.853229547240356937E-31, -1.000000000000000000, -1.606225440719270065E-16 ) ) ;
#182 =( NAMED_UNIT ( * ) PLANE_ANGLE_UNIT ( ) SI_UNIT ( $, .RADIAN. ) );
#183 = CARTESIAN_POINT ( 'NONE',  ( 2.304377683636468267E-13, -8.082668874372532400E-15, 66.00000000000000000 ) ) ;
#184 = DIRECTION ( 'NONE',  ( -2.382254525458724175E-15, -0.7071067811865451302, -0.7071067811865499042 ) ) ;
#185 = DIRECTION ( 'NONE',  ( 0.0000000000000000000, 1.000000000000000000, 0.0000000000000000000 ) ) ;
#186 = CIRCLE ( 'NONE', #243, 2.700000000000001066 ) ;
#187 = VECTOR ( 'NONE', #40, 1000.000000000000000 ) ;
#188 = APPROVAL ( #246, 'UNSPECIFIED' ) ;
#189 = CIRCLE ( 'NONE', #130, 2.699999999999995737 ) ;
#190 = ORIENTED_EDGE ( 'NONE', *, *, #194, .T. ) ;
#191 = CARTESIAN_POINT ( 'NONE',  ( 5.664312824167290478E-15, -1.986773491329674064E-16, 1.622323671374426679 ) ) ;
#192 = DIRECTION ( 'NONE',  ( -3.491481338843133355E-15, 1.224646799147353207E-16, -1.000000000000000000 ) ) ;
#193 = AXIS2_PLACEMENT_3D ( 'NONE', #250, #11, #120 ) ;
#194 = EDGE_CURVE ( 'NONE', #114, #143, #61, .T. ) ;
#195 = PERSON_AND_ORGANIZATION_ROLE ( 'classification_officer' ) ;
#196 = EDGE_LOOP ( 'NONE', ( #259, #24, #87 ) ) ;
#197 = CC_DESIGN_DATE_AND_TIME_ASSIGNMENT ( #150, #320, ( #84 ) ) ;
#198 = PLANE ( 'NONE',  #290 ) ;
#199 = CYLINDRICAL_SURFACE ( 'NONE', #309, 2.699999999999998401 ) ;
#200 = APPROVAL_ROLE ( '' ) ;
#201 = DIRECTION ( 'NONE',  ( -3.491481338843133355E-15, 1.224646799147353207E-16, -1.000000000000000000 ) ) ;
#202 = AXIS2_PLACEMENT_3D ( 'NONE', #281, #67, #181 ) ;
#203 = DESIGN_CONTEXT ( 'detailed design', #72, 'design' ) ;
#204 = CALENDAR_DATE ( 2021, 3, 9 ) ;
#205 = DIRECTION ( 'NONE',  ( 2.853229547240356937E-31, 1.000000000000000000, 1.606225440719270065E-16 ) ) ;
#206 = CARTESIAN_POINT ( 'NONE',  ( 2.296842391937892346E-13, -2.100000000000009859, 66.00000000000000000 ) ) ;
#207 = CONICAL_SURFACE ( 'NONE', #202, 2.699999999999993072, 1.029744258676649649 ) ;
#208 = EDGE_CURVE ( 'NONE', #21, #171, #248, .T. ) ;
#209 = DIRECTION ( 'NONE',  ( -3.491481338843133355E-15, 1.224646799147353207E-16, -1.000000000000000000 ) ) ;
#210 = EDGE_CURVE ( 'NONE', #118, #171, #233, .T. ) ;
#211 = AXIS2_PLACEMENT_3D ( 'NONE', #183, #278, #99 ) ;
#212 = EDGE_LOOP ( 'NONE', ( #168, #110, #308, #293 ) ) ;
#213 = AXIS2_PLACEMENT_3D ( 'NONE', #306, #329, #159 ) ;
#214 = ADVANCED_BREP_SHAPE_REPRESENTATION ( '29693', ( #285, #282, #102 ), #2 ) ;
#215 = ADVANCED_FACE ( 'NONE', ( #305 ), #207, .T. ) ;
#216 = VERTEX_POINT ( 'NONE', #123 ) ;
#217 = CARTESIAN_POINT ( 'NONE',  ( 7.332110811570580046E-14, 2.024675706593500928E-32, 21.00000000000000000 ) ) ;
#218 = APPROVAL ( #117, 'UNSPECIFIED' ) ;
#219 = AXIS2_PLACEMENT_3D ( 'NONE', #93, #69, #205 ) ;
#220 = DIRECTION ( 'NONE',  ( -3.491481338843133355E-15, 1.224646799147353207E-16, -1.000000000000000000 ) ) ;
#221 = FACE_OUTER_BOUND ( 'NONE', #212, .T. ) ;
#222 = ORIENTED_EDGE ( 'NONE', *, *, #164, .T. ) ;
#223 = LOCAL_TIME ( 9, 21, 49.00000000000000000, #268 ) ;
#224 = CARTESIAN_POINT ( 'NONE',  ( 7.332110811570580046E-14, -2.571758278209441661E-15, 21.00000000000000000 ) ) ;
#225 = DATE_AND_TIME ( #204, #254 ) ;
#226 = EDGE_CURVE ( 'NONE', #86, #171, #277, .T. ) ;
#227 = MECHANICAL_CONTEXT ( 'NONE', #47, 'mechanical' ) ;
#228 = DIRECTION ( 'NONE',  ( -2.853229547240356937E-31, -1.000000000000000000, -1.606225440719270065E-16 ) ) ;
#229 = DIRECTION ( 'NONE',  ( 0.0000000000000000000, 1.000000000000000000, 0.0000000000000000000 ) ) ;
#230 = CALENDAR_DATE ( 2021, 3, 9 ) ;
#231 = VECTOR ( 'NONE', #307, 1000.000000000000000 ) ;
#232 = APPLICATION_PROTOCOL_DEFINITION ( 'international standard', 'config_control_design', 1994, #72 ) ;
#233 = CIRCLE ( 'NONE', #219, 2.699999999999993072 ) ;
#234 = AXIS2_PLACEMENT_3D ( 'NONE', #253, #192, #332 ) ;
#235 = FACE_OUTER_BOUND ( 'NONE', #108, .T. ) ;
#236 = CARTESIAN_POINT ( 'NONE',  ( 1.154474490392178071E-30, 2.699999999999998401, 3.306546357697851761E-16 ) ) ;
#237 = DIRECTION ( 'NONE',  ( 0.0000000000000000000, 0.0000000000000000000, 1.000000000000000000 ) ) ;
#238 = CC_DESIGN_SECURITY_CLASSIFICATION ( #84, ( #257 ) ) ;
#239 = CARTESIAN_POINT ( 'NONE',  ( 7.332110811570580046E-14, 2.699999999999993072, 21.00000000000000000 ) ) ;
#240 = LINE ( 'NONE', #142, #131 ) ;
#241 = ORIENTED_EDGE ( 'NONE', *, *, #210, .F. ) ;
#242 = CARTESIAN_POINT ( 'NONE',  ( 2.304377683636468267E-13, 2.099999999999993427, 66.00000000000000000 ) ) ;
#243 = AXIS2_PLACEMENT_3D ( 'NONE', #65, #304, #185 ) ;
#244 = CARTESIAN_POINT ( 'NONE',  ( 3.306546357697835491E-16, -2.699999999999994404, -3.306546357697858171E-16 ) ) ;
#245 = PLANE ( 'NONE',  #193 ) ;
#246 = APPROVAL_STATUS ( 'not_yet_approved' ) ;
#247 = DIRECTION ( 'NONE',  ( 4.275831445896958607E-31, 1.000000000000000000, 1.224646799147353207E-16 ) ) ;
#248 = LINE ( 'NONE', #156, #231 ) ;
#249 = EDGE_CURVE ( 'NONE', #144, #6, #39, .T. ) ;
#250 = CARTESIAN_POINT ( 'NONE',  ( 2.304377683636468267E-13, 1.574747771794939267E-32, 66.00000000000000000 ) ) ;
#251 = FACE_OUTER_BOUND ( 'NONE', #4, .T. ) ;
#252 = AXIS2_PLACEMENT_3D ( 'NONE', #191, #81, #165 ) ;
#253 = CARTESIAN_POINT ( 'NONE',  ( 2.304377683636468267E-13, -8.082668874372532400E-15, 66.00000000000000000 ) ) ;
#254 = LOCAL_TIME ( 9, 21, 49.00000000000000000, #124 ) ;
#255 = EDGE_CURVE ( 'NONE', #63, #143, #269, .T. ) ;
#256 = APPROVAL_PERSON_ORGANIZATION ( #32, #188, #96 ) ;
#257 = PRODUCT_DEFINITION_FORMATION_WITH_SPECIFIED_SOURCE ( 'ANY', '', #56, .NOT_KNOWN. ) ;
#258 = ORIENTED_EDGE ( 'NONE', *, *, #249, .F. ) ;
#259 = ORIENTED_EDGE ( 'NONE', *, *, #226, .F. ) ;
#260 = CARTESIAN_POINT ( 'NONE',  ( 1.511626484737931029E-13, -2.699999999999998401, 21.00000000000000000 ) ) ;
#261 = PERSON_AND_ORGANIZATION ( #71, #19 ) ;
#262 = ORIENTED_EDGE ( 'NONE', *, *, #100, .T. ) ;
#263 = DIRECTION ( 'NONE',  ( 3.491481338843133355E-15, -1.224646799147353207E-16, 1.000000000000000000 ) ) ;
#264 = PERSON_AND_ORGANIZATION ( #71, #19 ) ;
#265 = DIRECTION ( 'NONE',  ( 0.0000000000000000000, 1.000000000000000000, 0.0000000000000000000 ) ) ;
#266 = EDGE_CURVE ( 'NONE', #144, #63, #240, .T. ) ;
#267 = CIRCLE ( 'NONE', #289, 2.100000000000001421 ) ;
#268 = COORDINATED_UNIVERSAL_TIME_OFFSET ( 1, 0, .AHEAD. ) ;
#269 = LINE ( 'NONE', #236, #97 ) ;
#270 = ORIENTED_EDGE ( 'NONE', *, *, #331, .T. ) ;
#271 = PERSON_AND_ORGANIZATION ( #71, #19 ) ;
#272 = DIRECTION ( 'NONE',  ( 3.491481338843133355E-15, -1.224646799147353207E-16, 1.000000000000000000 ) ) ;
#273 = CARTESIAN_POINT ( 'NONE',  ( 0.0000000000000000000, 0.0000000000000000000, 0.0000000000000000000 ) ) ;
#274 = CIRCLE ( 'NONE', #252, 2.699999999999993072 ) ;
#275 = AXIS2_PLACEMENT_3D ( 'NONE', #317, #145, #113 ) ;
#276 = DIRECTION ( 'NONE',  ( -3.491481338843133355E-15, 1.224646799147353207E-16, -1.000000000000000000 ) ) ;
#277 = LINE ( 'NONE', #38, #42 ) ;
#278 = DIRECTION ( 'NONE',  ( -3.491481338843133355E-15, 1.224646799147353207E-16, -1.000000000000000000 ) ) ;
#279 = DATE_TIME_ROLE ( 'creation_date' ) ;
#280 = CARTESIAN_POINT ( 'NONE',  ( 5.664312824167290478E-15, -1.986773491329674064E-16, 1.622323671374426679 ) ) ;
#281 = CARTESIAN_POINT ( 'NONE',  ( 5.664312824167290478E-15, -1.986773491329674064E-16, 1.622323671374426679 ) ) ;
#282 = MANIFOLD_SOLID_BREP ( 'Corps-Déplacer/Copier1[2]', #90 ) ;
#283 = AXIS2_PLACEMENT_3D ( 'NONE', #166, #334, #112 ) ;
#284 =( NAMED_UNIT ( * ) SI_UNIT ( $, .STERADIAN. ) SOLID_ANGLE_UNIT ( ) );
#285 = MANIFOLD_SOLID_BREP ( 'Corps-Déplacer/Copier1[1]', #321 ) ;
#286 = DIRECTION ( 'NONE',  ( 0.0000000000000000000, 1.000000000000000000, 0.0000000000000000000 ) ) ;
#287 = ORIENTED_EDGE ( 'NONE', *, *, #331, .F. ) ;
#288 = PRODUCT_DEFINITION_SHAPE ( 'NONE', 'NONE',  #37 ) ;
#289 = AXIS2_PLACEMENT_3D ( 'NONE', #107, #46, #286 ) ;
#290 = AXIS2_PLACEMENT_3D ( 'NONE', #217, #294, #292 ) ;
#291 = ORIENTED_EDGE ( 'NONE', *, *, #208, .F. ) ;
#292 = DIRECTION ( 'NONE',  ( -4.275831445896958607E-31, -1.000000000000000000, -1.224646799147353207E-16 ) ) ;
#293 = ORIENTED_EDGE ( 'NONE', *, *, #255, .F. ) ;
#294 = DIRECTION ( 'NONE',  ( 3.491481338843133355E-15, -1.224646799147353207E-16, 1.000000000000000000 ) ) ;
#295 = CARTESIAN_POINT ( 'NONE',  ( 5.994967459937075851E-15, 2.699999999999993072, 1.622323671374427123 ) ) ;
#296 = APPROVAL_STATUS ( 'not_yet_approved' ) ;
#297 = DIRECTION ( 'NONE',  ( -3.491481338843133355E-15, 1.224646799147353207E-16, -1.000000000000000000 ) ) ;
#298 = CC_DESIGN_APPROVAL ( #133, ( #37 ) ) ;
#299 = ORIENTED_EDGE ( 'NONE', *, *, #80, .F. ) ;
#300 = ORIENTED_EDGE ( 'NONE', *, *, #249, .T. ) ;
#301 = APPROVAL_DATE_TIME ( #225, #218 ) ;
#302 = ADVANCED_FACE ( 'NONE', ( #235 ), #50, .T. ) ;
#303 = CC_DESIGN_PERSON_AND_ORGANIZATION_ASSIGNMENT ( #271, #23, ( #37 ) ) ;
#304 = DIRECTION ( 'NONE',  ( -3.491481338843133355E-15, 1.224646799147353207E-16, -1.000000000000000000 ) ) ;
#305 = FACE_OUTER_BOUND ( 'NONE', #196, .T. ) ;
#306 = CARTESIAN_POINT ( 'NONE',  ( 2.304377683636468267E-13, -8.082668874372532400E-15, 66.00000000000000000 ) ) ;
#307 = DIRECTION ( 'NONE',  ( -3.491481338843133355E-15, 1.224646799147353207E-16, -1.000000000000000000 ) ) ;
#308 = ORIENTED_EDGE ( 'NONE', *, *, #103, .F. ) ;
#309 = AXIS2_PLACEMENT_3D ( 'NONE', #273, #297, #59 ) ;
#310 = PERSON_AND_ORGANIZATION ( #71, #19 ) ;
#311 = ORIENTED_EDGE ( 'NONE', *, *, #194, .F. ) ;
#312 = CARTESIAN_POINT ( 'NONE',  ( 7.332110811570580046E-14, -2.571758278209441661E-15, 21.00000000000000000 ) ) ;
#313 = EDGE_CURVE ( 'NONE', #316, #63, #126, .T. ) ;
#314 = PERSON_AND_ORGANIZATION_ROLE ( 'design_supplier' ) ;
#315 = ORIENTED_EDGE ( 'NONE', *, *, #266, .T. ) ;
#316 = VERTEX_POINT ( 'NONE', #62 ) ;
#317 = CARTESIAN_POINT ( 'NONE',  ( 0.0000000000000000000, 0.0000000000000000000, 0.0000000000000000000 ) ) ;
#318 = CC_DESIGN_DATE_AND_TIME_ASSIGNMENT ( #12, #279, ( #37 ) ) ;
#319 = DIRECTION ( 'NONE',  ( -2.468850131082272838E-15, 0.7071067811865453523, -0.7071067811865496822 ) ) ;
#320 = DATE_TIME_ROLE ( 'classification_date' ) ;
#321 = CLOSED_SHELL ( 'NONE', ( #173, #170, #323, #302, #43, #179 ) ) ;
#322 = AXIS2_PLACEMENT_3D ( 'NONE', #169, #263, #337 ) ;
#323 = ADVANCED_FACE ( 'NONE', ( #172 ), #198, .F. ) ;
#324 = LINE ( 'NONE', #92, #73 ) ;
#325 = COORDINATED_UNIVERSAL_TIME_OFFSET ( 1, 0, .AHEAD. ) ;
#326 = CONICAL_SURFACE ( 'NONE', #211, 2.100000000000001421, 0.7853981633974450594 ) ;
#327 = ADVANCED_FACE ( 'NONE', ( #88 ), #54, .T. ) ;
#328 = CC_DESIGN_PERSON_AND_ORGANIZATION_ASSIGNMENT ( #264, #314, ( #257 ) ) ;
#329 = DIRECTION ( 'NONE',  ( -3.491481338843133355E-15, 1.224646799147353207E-16, -1.000000000000000000 ) ) ;
#330 = VECTOR ( 'NONE', #116, 1000.000000000000000 ) ;
#331 = EDGE_CURVE ( 'NONE', #216, #118, #22, .T. ) ;
#332 = DIRECTION ( 'NONE',  ( 0.0000000000000000000, 1.000000000000000000, 0.0000000000000000000 ) ) ;
#333 = PERSON_AND_ORGANIZATION ( #71, #19 ) ;
#334 = DIRECTION ( 'NONE',  ( -3.491481338843133355E-15, 1.224646799147353207E-16, -1.000000000000000000 ) ) ;
#335 = CYLINDRICAL_SURFACE ( 'NONE', #275, 2.699999999999994404 ) ;
#336 = ORIENTED_EDGE ( 'NONE', *, *, #25, .F. ) ;
#337 = DIRECTION ( 'NONE',  ( -4.275831445896958607E-31, -1.000000000000000000, -1.224646799147353207E-16 ) ) ;
ENDSEC;
END-ISO-10303-21;
