ISO-10303-21;
HEADER;
FILE_DESCRIPTION (( 'STEP AP203' ),
    '1' );
FILE_NAME ('2969.step',
    '2021-12-06T12:58:39',
    ( '' ),
    ( '' ),
    'SwSTEP 2.0',
    'SolidWorks 2019',
    '' );
FILE_SCHEMA (( 'CONFIG_CONTROL_DESIGN' ));
ENDSEC;

DATA;
#1 = EDGE_CURVE ( 'NONE', #100, #100, #158, .T. ) ;
#2 = FACE_OUTER_BOUND ( 'NONE', #96, .T. ) ;
#3 = VERTEX_POINT ( 'NONE', #110 ) ;
#4 = APPLICATION_CONTEXT ( 'configuration controlled 3d designs of mechanical parts and assemblies' ) ;
#5 = CC_DESIGN_SECURITY_CLASSIFICATION ( #138, ( #64 ) ) ;
#6 = PERSON_AND_ORGANIZATION ( #135, #55 ) ;
#7 = DATE_AND_TIME ( #164, #111 ) ;
#8 = AXIS2_PLACEMENT_3D ( 'NONE', #94, #142, #28 ) ;
#9 = UNCERTAINTY_MEASURE_WITH_UNIT (LENGTH_MEASURE( 1.000000000000000082E-05 ), #26, 'distance_accuracy_value', 'NONE');
#10 = APPROVAL_STATUS ( 'not_yet_approved' ) ;
#11 = APPROVAL_ROLE ( '' ) ;
#12 = DIRECTION ( 'NONE',  ( -3.491481338843133355E-15, 2.694222958124176513E-16, -1.000000000000000000 ) ) ;
#13 = AXIS2_PLACEMENT_3D ( 'NONE', #131, #31, #105 ) ;
#14 = DIRECTION ( 'NONE',  ( 9.406829180973305782E-31, 1.000000000000000000, 2.694222958124176513E-16 ) ) ;
#15 = APPLICATION_CONTEXT ( 'configuration controlled 3d designs of mechanical parts and assemblies' ) ;
#16 = APPROVAL ( #10, 'UNSPECIFIED' ) ;
#17 = CC_DESIGN_APPROVAL ( #16, ( #125 ) ) ;
#18 = APPROVAL_PERSON_ORGANIZATION ( #118, #16, #93 ) ;
#19 = EDGE_LOOP ( 'NONE', ( #141 ) ) ;
#20 = FACE_OUTER_BOUND ( 'NONE', #46, .T. ) ;
#21 = DATE_AND_TIME ( #41, #40 ) ;
#22 = ADVANCED_FACE ( 'NONE', ( #82, #97 ), #155, .T. ) ;
#23 = PRODUCT_DEFINITION_SHAPE ( 'NONE', 'NONE',  #125 ) ;
#24 = APPROVAL_PERSON_ORGANIZATION ( #6, #114, #101 ) ;
#25 = DATE_AND_TIME ( #140, #73 ) ;
#26 =( LENGTH_UNIT ( ) NAMED_UNIT ( * ) SI_UNIT ( .MILLI., .METRE. ) );
#27 = CARTESIAN_POINT ( 'NONE',  ( 1.745740669421555634E-15, 8.000000000000000000, 0.4999999999999968914 ) ) ;
#28 = DIRECTION ( 'NONE',  ( 9.406829180973307533E-31, 1.000000000000000000, 2.694222958124176513E-16 ) ) ;
#29 = EDGE_LOOP ( 'NONE', ( #107 ) ) ;
#30 = ORIENTED_EDGE ( 'NONE', *, *, #35, .F. ) ;
#31 = DIRECTION ( 'NONE',  ( -3.491481338843133355E-15, 2.694222958124176513E-16, -1.000000000000000000 ) ) ;
#32 = ADVANCED_FACE ( 'NONE', ( #152, #42 ), #92, .T. ) ;
#33 = DIRECTION ( 'NONE',  ( 9.406829180973305782E-31, 1.000000000000000000, 2.694222958124176513E-16 ) ) ;
#34 = CIRCLE ( 'NONE', #83, 31.50000000000000000 ) ;
#35 = EDGE_CURVE ( 'NONE', #124, #124, #139, .T. ) ;
#36 = CYLINDRICAL_SURFACE ( 'NONE', #50, 8.000000000000000000 ) ;
#37 = CARTESIAN_POINT ( 'NONE',  ( 1.745740669421566678E-15, 31.50000000000000000, 0.5000000000000000000 ) ) ;
#38 = PERSON_AND_ORGANIZATION ( #135, #55 ) ;
#39 = SECURITY_CLASSIFICATION_LEVEL ( 'unclassified' ) ;
#40 = LOCAL_TIME ( 13, 58, 39.00000000000000000, #116 ) ;
#41 = CALENDAR_DATE ( 2021, 6, 12 ) ;
#42 = FACE_OUTER_BOUND ( 'NONE', #119, .T. ) ;
#43 = PRODUCT ( '2969', '2969', '', ( #89 ) ) ;
#44 = DIRECTION ( 'NONE',  ( -9.406829180973307533E-31, -1.000000000000000000, -2.694222958124176513E-16 ) ) ;
#45 = DESIGN_CONTEXT ( 'detailed design', #15, 'design' ) ;
#46 = EDGE_LOOP ( 'NONE', ( #146 ) ) ;
#47 = LOCAL_TIME ( 13, 58, 39.00000000000000000, #66 ) ;
#48 = CYLINDRICAL_SURFACE ( 'NONE', #112, 31.50000000000000000 ) ;
#49 = CC_DESIGN_PERSON_AND_ORGANIZATION_ASSIGNMENT ( #38, #88, ( #64 ) ) ;
#50 = AXIS2_PLACEMENT_3D ( 'NONE', #51, #122, #132 ) ;
#51 = CARTESIAN_POINT ( 'NONE',  ( 0.0000000000000000000, 0.0000000000000000000, 0.0000000000000000000 ) ) ;
#52 =( NAMED_UNIT ( * ) SI_UNIT ( $, .STERADIAN. ) SOLID_ANGLE_UNIT ( ) );
#53 = APPROVAL ( #54, 'UNSPECIFIED' ) ;
#54 = APPROVAL_STATUS ( 'not_yet_approved' ) ;
#55 = ORGANIZATION ( 'UNSPECIFIED', 'UNSPECIFIED', '' ) ;
#56 = PERSON_AND_ORGANIZATION_ROLE ( 'design_owner' ) ;
#57 = ORIENTED_EDGE ( 'NONE', *, *, #1, .T. ) ;
#58 = CC_DESIGN_APPROVAL ( #114, ( #64 ) ) ;
#59 = CALENDAR_DATE ( 2021, 6, 12 ) ;
#60 = ORIENTED_EDGE ( 'NONE', *, *, #63, .T. ) ;
#61 = DATE_AND_TIME ( #59, #151 ) ;
#62 = FACE_OUTER_BOUND ( 'NONE', #29, .T. ) ;
#63 = EDGE_CURVE ( 'NONE', #3, #3, #34, .T. ) ;
#64 = PRODUCT_DEFINITION_FORMATION_WITH_SPECIFIED_SOURCE ( 'ANY', '', #43, .NOT_KNOWN. ) ;
#65 = APPROVAL_STATUS ( 'not_yet_approved' ) ;
#66 = COORDINATED_UNIVERSAL_TIME_OFFSET ( 1, 0, .AHEAD. ) ;
#67 = DIRECTION ( 'NONE',  ( 1.000000000000000000, 0.0000000000000000000, 0.0000000000000000000 ) ) ;
#68 = CARTESIAN_POINT ( 'NONE',  ( 0.0000000000000000000, 0.0000000000000000000, 0.0000000000000000000 ) ) ;
#69 = COORDINATED_UNIVERSAL_TIME_OFFSET ( 1, 0, .AHEAD. ) ;
#70 = DIRECTION ( 'NONE',  ( 9.415657505893152670E-31, 1.000000000000000000, 2.684691093773629980E-16 ) ) ;
#71 = CC_DESIGN_DATE_AND_TIME_ASSIGNMENT ( #25, #79, ( #138 ) ) ;
#72 = CARTESIAN_POINT ( 'NONE',  ( 1.745740669421558592E-15, -1.347111479062082094E-16, 0.4999999999999977240 ) ) ;
#73 = LOCAL_TIME ( 13, 58, 39.00000000000000000, #137 ) ;
#74 = ADVANCED_BREP_SHAPE_REPRESENTATION ( '2969', ( #147, #99 ), #90 ) ;
#75 = CC_DESIGN_PERSON_AND_ORGANIZATION_ASSIGNMENT ( #87, #56, ( #43 ) ) ;
#76 = CARTESIAN_POINT ( 'NONE',  ( 1.745740669421566283E-15, 8.000000000000000000, 0.4999999999999998890 ) ) ;
#77 = DIRECTION ( 'NONE',  ( 0.0000000000000000000, 0.0000000000000000000, 1.000000000000000000 ) ) ;
#78 = CIRCLE ( 'NONE', #160, 8.000000000000000000 ) ;
#79 = DATE_TIME_ROLE ( 'classification_date' ) ;
#80 = CARTESIAN_POINT ( 'NONE',  ( -2.963151192006591479E-29, 2.286533764646267086E-30, -8.486802318091155549E-15 ) ) ;
#81 = EDGE_LOOP ( 'NONE', ( #60 ) ) ;
#82 = FACE_OUTER_BOUND ( 'NONE', #81, .T. ) ;
#83 = AXIS2_PLACEMENT_3D ( 'NONE', #80, #130, #14 ) ;
#84 = FACE_OUTER_BOUND ( 'NONE', #19, .T. ) ;
#85 = CARTESIAN_POINT ( 'NONE',  ( 0.0000000000000000000, 8.000000000000000000, 0.0000000000000000000 ) ) ;
#86 = AXIS2_PLACEMENT_3D ( 'NONE', #129, #12, #70 ) ;
#87 = PERSON_AND_ORGANIZATION ( #135, #55 ) ;
#88 = PERSON_AND_ORGANIZATION_ROLE ( 'creator' ) ;
#89 = MECHANICAL_CONTEXT ( 'NONE', #4, 'mechanical' ) ;
#90 =( GEOMETRIC_REPRESENTATION_CONTEXT ( 3 ) GLOBAL_UNCERTAINTY_ASSIGNED_CONTEXT ( ( #9 ) ) GLOBAL_UNIT_ASSIGNED_CONTEXT ( ( #26, #106, #52 ) ) REPRESENTATION_CONTEXT ( 'NONE', 'WORKASPACE' ) );
#91 = PERSON_AND_ORGANIZATION ( #135, #55 ) ;
#92 = PLANE ( 'NONE',  #109 ) ;
#93 = APPROVAL_ROLE ( '' ) ;
#94 = CARTESIAN_POINT ( 'NONE',  ( -7.525463344778646027E-30, 5.807069878466710380E-31, -2.155378366499341211E-15 ) ) ;
#95 = ORIENTED_EDGE ( 'NONE', *, *, #1, .F. ) ;
#96 = EDGE_LOOP ( 'NONE', ( #57 ) ) ;
#97 = FACE_BOUND ( 'NONE', #120, .T. ) ;
#98 = CC_DESIGN_PERSON_AND_ORGANIZATION_ASSIGNMENT ( #127, #113, ( #138 ) ) ;
#99 = AXIS2_PLACEMENT_3D ( 'NONE', #68, #77, #67 ) ;
#100 = VERTEX_POINT ( 'NONE', #37 ) ;
#101 = APPROVAL_ROLE ( '' ) ;
#102 = DATE_AND_TIME ( #162, #47 ) ;
#103 = PERSON_AND_ORGANIZATION_ROLE ( 'creator' ) ;
#104 = EDGE_CURVE ( 'NONE', #136, #136, #78, .T. ) ;
#105 = DIRECTION ( 'NONE',  ( 9.406829180973307533E-31, 1.000000000000000000, 2.694222958124176513E-16 ) ) ;
#106 =( NAMED_UNIT ( * ) PLANE_ANGLE_UNIT ( ) SI_UNIT ( $, .RADIAN. ) );
#107 = ORIENTED_EDGE ( 'NONE', *, *, #63, .F. ) ;
#108 = CARTESIAN_POINT ( 'NONE',  ( 0.0000000000000000000, 0.0000000000000000000, 0.0000000000000000000 ) ) ;
#109 = AXIS2_PLACEMENT_3D ( 'NONE', #27, #167, #44 ) ;
#110 = CARTESIAN_POINT ( 'NONE',  ( 0.0000000000000000000, 31.50000000000000000, 0.0000000000000000000 ) ) ;
#111 = LOCAL_TIME ( 13, 58, 39.00000000000000000, #161 ) ;
#112 = AXIS2_PLACEMENT_3D ( 'NONE', #108, #168, #33 ) ;
#113 = PERSON_AND_ORGANIZATION_ROLE ( 'classification_officer' ) ;
#114 = APPROVAL ( #65, 'UNSPECIFIED' ) ;
#115 = DATE_TIME_ROLE ( 'creation_date' ) ;
#116 = COORDINATED_UNIVERSAL_TIME_OFFSET ( 1, 0, .AHEAD. ) ;
#117 = PERSON_AND_ORGANIZATION ( #135, #55 ) ;
#118 = PERSON_AND_ORGANIZATION ( #135, #55 ) ;
#119 = EDGE_LOOP ( 'NONE', ( #95 ) ) ;
#120 = EDGE_LOOP ( 'NONE', ( #30 ) ) ;
#121 = DIRECTION ( 'NONE',  ( -3.491481338843133355E-15, 2.694222958124176513E-16, -1.000000000000000000 ) ) ;
#122 = DIRECTION ( 'NONE',  ( -3.491481338843133355E-15, 2.694222958124176513E-16, -1.000000000000000000 ) ) ;
#123 = CLOSED_SHELL ( 'NONE', ( #22, #154, #32, #163 ) ) ;
#124 = VERTEX_POINT ( 'NONE', #85 ) ;
#125 = PRODUCT_DEFINITION ( 'UNKNOWN', '', #64, #45 ) ;
#126 = APPROVAL_PERSON_ORGANIZATION ( #117, #53, #11 ) ;
#127 = PERSON_AND_ORGANIZATION ( #135, #55 ) ;
#128 = APPROVAL_DATE_TIME ( #21, #16 ) ;
#129 = CARTESIAN_POINT ( 'NONE',  ( 1.745740669421537095E-15, -1.347111479062065330E-16, 0.4999999999999915623 ) ) ;
#130 = DIRECTION ( 'NONE',  ( -3.491481338843133355E-15, 2.694222958124176513E-16, -1.000000000000000000 ) ) ;
#131 = CARTESIAN_POINT ( 'NONE',  ( -1.105302428764363508E-29, 8.000000000000000000, -3.165711975795907366E-15 ) ) ;
#132 = DIRECTION ( 'NONE',  ( 9.406829180973307533E-31, 1.000000000000000000, 2.694222958124176513E-16 ) ) ;
#133 = CC_DESIGN_APPROVAL ( #53, ( #138 ) ) ;
#134 = CC_DESIGN_PERSON_AND_ORGANIZATION_ASSIGNMENT ( #165, #103, ( #125 ) ) ;
#135 = PERSON ( 'UNSPECIFIED', 'UNSPECIFIED', 'UNSPECIFIED', ('UNSPECIFIED'), ('UNSPECIFIED'), ('UNSPECIFIED') ) ;
#136 = VERTEX_POINT ( 'NONE', #76 ) ;
#137 = COORDINATED_UNIVERSAL_TIME_OFFSET ( 1, 0, .AHEAD. ) ;
#138 = SECURITY_CLASSIFICATION ( '', '', #39 ) ;
#139 = CIRCLE ( 'NONE', #8, 8.000000000000000000 ) ;
#140 = CALENDAR_DATE ( 2021, 6, 12 ) ;
#141 = ORIENTED_EDGE ( 'NONE', *, *, #35, .T. ) ;
#142 = DIRECTION ( 'NONE',  ( -3.491481338843133355E-15, 2.694222958124176513E-16, -1.000000000000000000 ) ) ;
#143 = CC_DESIGN_DATE_AND_TIME_ASSIGNMENT ( #7, #115, ( #125 ) ) ;
#144 = SHAPE_DEFINITION_REPRESENTATION ( #23, #74 ) ;
#145 = ORIENTED_EDGE ( 'NONE', *, *, #104, .T. ) ;
#146 = ORIENTED_EDGE ( 'NONE', *, *, #104, .F. ) ;
#147 = MANIFOLD_SOLID_BREP ( 'Corps-Déplacer/Copier1', #123 ) ;
#148 = APPROVAL_DATE_TIME ( #102, #114 ) ;
#149 = PERSON_AND_ORGANIZATION_ROLE ( 'design_supplier' ) ;
#150 = APPLICATION_PROTOCOL_DEFINITION ( 'international standard', 'config_control_design', 1994, #4 ) ;
#151 = LOCAL_TIME ( 13, 58, 39.00000000000000000, #69 ) ;
#152 = FACE_BOUND ( 'NONE', #169, .T. ) ;
#153 = APPLICATION_PROTOCOL_DEFINITION ( 'international standard', 'config_control_design', 1994, #15 ) ;
#154 = ADVANCED_FACE ( 'NONE', ( #2, #62 ), #48, .T. ) ;
#155 = PLANE ( 'NONE',  #13 ) ;
#156 = DIRECTION ( 'NONE',  ( 9.629649721936179265E-31, 1.000000000000000000, 2.710505431213761085E-16 ) ) ;
#157 = APPROVAL_DATE_TIME ( #61, #53 ) ;
#158 = CIRCLE ( 'NONE', #86, 31.50000000000000000 ) ;
#159 = CC_DESIGN_PERSON_AND_ORGANIZATION_ASSIGNMENT ( #91, #149, ( #64 ) ) ;
#160 = AXIS2_PLACEMENT_3D ( 'NONE', #72, #121, #156 ) ;
#161 = COORDINATED_UNIVERSAL_TIME_OFFSET ( 1, 0, .AHEAD. ) ;
#162 = CALENDAR_DATE ( 2021, 6, 12 ) ;
#163 = ADVANCED_FACE ( 'NONE', ( #84, #20 ), #36, .F. ) ;
#164 = CALENDAR_DATE ( 2021, 6, 12 ) ;
#165 = PERSON_AND_ORGANIZATION ( #135, #55 ) ;
#166 = PRODUCT_RELATED_PRODUCT_CATEGORY ( 'detail', '', ( #43 ) ) ;
#167 = DIRECTION ( 'NONE',  ( 3.491481338843133355E-15, -2.694222958124176513E-16, 1.000000000000000000 ) ) ;
#168 = DIRECTION ( 'NONE',  ( -3.491481338843133355E-15, 2.694222958124176513E-16, -1.000000000000000000 ) ) ;
#169 = EDGE_LOOP ( 'NONE', ( #145 ) ) ;
ENDSEC;
END-ISO-10303-21;
