ISO-10303-21;
HEADER;
FILE_DESCRIPTION (( 'STEP AP203' ),
    '1' );
FILE_NAME ('29689.step',
    '2021-09-03T07:21:48',
    ( '' ),
    ( '' ),
    'SwSTEP 2.0',
    'SolidWorks 2019',
    '' );
FILE_SCHEMA (( 'CONFIG_CONTROL_DESIGN' ));
ENDSEC;

DATA;
#1 = COORDINATED_UNIVERSAL_TIME_OFFSET ( 1, 0, .AHEAD. ) ;
#2 = DIRECTION ( 'NONE',  ( 0.0000000000000000000, 1.000000000000000000, 0.0000000000000000000 ) ) ;
#3 = PRODUCT_DEFINITION ( 'UNKNOWN', '', #195, #6 ) ;
#4 = VERTEX_POINT ( 'NONE', #302 ) ;
#5 = CALENDAR_DATE ( 2021, 3, 9 ) ;
#6 = DESIGN_CONTEXT ( 'detailed design', #31, 'design' ) ;
#7 = CARTESIAN_POINT ( 'NONE',  ( 0.0000000000000000000, 0.0000000000000000000, 0.0000000000000000000 ) ) ;
#8 = FACE_OUTER_BOUND ( 'NONE', #164, .T. ) ;
#9 = EDGE_CURVE ( 'NONE', #176, #296, #28, .T. ) ;
#10 = ORIENTED_EDGE ( 'NONE', *, *, #156, .F. ) ;
#11 = PERSON_AND_ORGANIZATION_ROLE ( 'creator' ) ;
#12 = CARTESIAN_POINT ( 'NONE',  ( 6.284666409917640040E-14, 2.199999999999993960, 18.00000000000000000 ) ) ;
#13 = ORIENTED_EDGE ( 'NONE', *, *, #21, .F. ) ;
#14 = AXIS2_PLACEMENT_3D ( 'NONE', #163, #107, #135 ) ;
#15 = PRODUCT_RELATED_PRODUCT_CATEGORY ( 'detail', '', ( #155 ) ) ;
#16 = APPROVAL_PERSON_ORGANIZATION ( #250, #25, #19 ) ;
#17 = DIRECTION ( 'NONE',  ( -3.491481338843133355E-15, 1.224646799147353207E-16, -1.000000000000000000 ) ) ;
#18 = AXIS2_PLACEMENT_3D ( 'NONE', #276, #98, #303 ) ;
#19 = APPROVAL_ROLE ( '' ) ;
#20 = LINE ( 'NONE', #129, #194 ) ;
#21 = EDGE_CURVE ( 'NONE', #285, #335, #227, .T. ) ;
#22 = SECURITY_CLASSIFICATION ( '', '', #315 ) ;
#23 = ORIENTED_EDGE ( 'NONE', *, *, #149, .F. ) ;
#24 = DATE_TIME_ROLE ( 'classification_date' ) ;
#25 = APPROVAL ( #103, 'UNSPECIFIED' ) ;
#26 = VERTEX_POINT ( 'NONE', #269 ) ;
#27 = COORDINATED_UNIVERSAL_TIME_OFFSET ( 1, 0, .AHEAD. ) ;
#28 = CIRCLE ( 'NONE', #67, 2.199999999999993960 ) ;
#29 = DIRECTION ( 'NONE',  ( -3.491481338843133355E-15, 1.224646799147353207E-16, -1.000000000000000000 ) ) ;
#30 = APPROVAL_DATE_TIME ( #214, #25 ) ;
#31 = APPLICATION_CONTEXT ( 'configuration controlled 3d designs of mechanical parts and assemblies' ) ;
#32 = FACE_OUTER_BOUND ( 'NONE', #213, .T. ) ;
#33 = PLANE ( 'NONE',  #180 ) ;
#34 = EDGE_CURVE ( 'NONE', #266, #133, #226, .T. ) ;
#35 = ORIENTED_EDGE ( 'NONE', *, *, #205, .T. ) ;
#36 = DIRECTION ( 'NONE',  ( 0.0000000000000000000, 1.000000000000000000, 0.0000000000000000000 ) ) ;
#37 = EDGE_LOOP ( 'NONE', ( #85, #35, #204, #65 ) ) ;
#38 = AXIS2_PLACEMENT_3D ( 'NONE', #244, #42, #223 ) ;
#39 =( NAMED_UNIT ( * ) SI_UNIT ( $, .STERADIAN. ) SOLID_ANGLE_UNIT ( ) );
#40 = CARTESIAN_POINT ( 'NONE',  ( 4.615366004877049543E-15, -1.618852474416770939E-16, 1.321893361860643434 ) ) ;
#41 = EDGE_CURVE ( 'NONE', #296, #176, #225, .T. ) ;
#42 = DIRECTION ( 'NONE',  ( 3.491481338843133355E-15, -1.224646799147353207E-16, 1.000000000000000000 ) ) ;
#43 = EDGE_LOOP ( 'NONE', ( #56, #236, #160, #116 ) ) ;
#44 = CC_DESIGN_PERSON_AND_ORGANIZATION_ASSIGNMENT ( #190, #171, ( #195 ) ) ;
#45 = CARTESIAN_POINT ( 'NONE',  ( 0.0000000000000000000, 0.0000000000000000000, 0.0000000000000000000 ) ) ;
#46 = CONICAL_SURFACE ( 'NONE', #14, 2.199999999999993960, 1.029744258676649649 ) ;
#47 = CC_DESIGN_APPROVAL ( #291, ( #195 ) ) ;
#48 = EDGE_CURVE ( 'NONE', #4, #337, #249, .T. ) ;
#49 = APPROVAL_PERSON_ORGANIZATION ( #233, #118, #231 ) ;
#50 = VECTOR ( 'NONE', #318, 1000.000000000000000 ) ;
#51 = EDGE_CURVE ( 'NONE', #133, #266, #294, .T. ) ;
#52 = DIRECTION ( 'NONE',  ( -3.491481338843133355E-15, 1.224646799147353207E-16, -1.000000000000000000 ) ) ;
#53 = APPLICATION_PROTOCOL_DEFINITION ( 'international standard', 'config_control_design', 1994, #31 ) ;
#54 = CC_DESIGN_DATE_AND_TIME_ASSIGNMENT ( #258, #24, ( #22 ) ) ;
#55 = DIRECTION ( 'NONE',  ( -3.491481338843133355E-15, 1.224646799147353207E-16, -1.000000000000000000 ) ) ;
#56 = ORIENTED_EDGE ( 'NONE', *, *, #162, .F. ) ;
#57 = CONICAL_SURFACE ( 'NONE', #18, 1.700000000000001288, 0.7853981633974407295 ) ;
#58 = MANIFOLD_SOLID_BREP ( 'Corps-Déplacer/Copier1[1]', #206 ) ;
#59 = DIRECTION ( 'NONE',  ( 0.0000000000000000000, 0.0000000000000000000, 1.000000000000000000 ) ) ;
#60 = CARTESIAN_POINT ( 'NONE',  ( 9.406829180973288265E-31, 2.199999999999995293, 2.694222958124171090E-16 ) ) ;
#61 = ORIENTED_EDGE ( 'NONE', *, *, #9, .F. ) ;
#62 = PERSON_AND_ORGANIZATION_ROLE ( 'classification_officer' ) ;
#63 = DIRECTION ( 'NONE',  ( 4.275831445896958607E-31, 1.000000000000000000, 1.224646799147353207E-16 ) ) ;
#64 = DIRECTION ( 'NONE',  ( -2.468850131082284276E-15, 0.7071067811865422437, -0.7071067811865527908 ) ) ;
#65 = ORIENTED_EDGE ( 'NONE', *, *, #41, .F. ) ;
#66 = SHAPE_DEFINITION_REPRESENTATION ( #109, #192 ) ;
#67 = AXIS2_PLACEMENT_3D ( 'NONE', #277, #17, #150 ) ;
#68 = EDGE_LOOP ( 'NONE', ( #13, #314 ) ) ;
#69 = COORDINATED_UNIVERSAL_TIME_OFFSET ( 1, 0, .AHEAD. ) ;
#70 = EDGE_LOOP ( 'NONE', ( #288, #224, #254, #230 ) ) ;
#71 = LINE ( 'NONE', #138, #50 ) ;
#72 = DIRECTION ( 'NONE',  ( 0.0000000000000000000, 1.000000000000000000, 0.0000000000000000000 ) ) ;
#73 = DIRECTION ( 'NONE',  ( -3.491481338843133355E-15, 1.224646799147353207E-16, -1.000000000000000000 ) ) ;
#74 = AXIS2_PLACEMENT_3D ( 'NONE', #40, #121, #145 ) ;
#75 = ORIENTED_EDGE ( 'NONE', *, *, #325, .F. ) ;
#76 = FACE_OUTER_BOUND ( 'NONE', #68, .T. ) ;
#77 = DIRECTION ( 'NONE',  ( -4.275831445896958607E-31, -1.000000000000000000, -1.224646799147353207E-16 ) ) ;
#78 = CC_DESIGN_SECURITY_CLASSIFICATION ( #22, ( #195 ) ) ;
#79 = DIRECTION ( 'NONE',  ( -3.491481338843133355E-15, 1.224646799147353207E-16, -1.000000000000000000 ) ) ;
#80 = LOCAL_TIME ( 9, 21, 48.00000000000000000, #27 ) ;
#81 = DIRECTION ( 'NONE',  ( 0.0000000000000000000, 1.000000000000000000, 0.0000000000000000000 ) ) ;
#82 = CYLINDRICAL_SURFACE ( 'NONE', #90, 2.199999999999995293 ) ;
#83 = DIRECTION ( 'NONE',  ( -3.491481338843133355E-15, 1.224646799147353207E-16, -1.000000000000000000 ) ) ;
#84 = AXIS2_PLACEMENT_3D ( 'NONE', #96, #274, #140 ) ;
#85 = ORIENTED_EDGE ( 'NONE', *, *, #263, .F. ) ;
#86 = APPROVAL_DATE_TIME ( #161, #291 ) ;
#87 = DIRECTION ( 'NONE',  ( 0.0000000000000000000, 1.000000000000000000, 0.0000000000000000000 ) ) ;
#88 = CARTESIAN_POINT ( 'NONE',  ( 2.025059176529017346E-13, 1.274795815262569114E-32, 58.00000000000000000 ) ) ;
#89 = ORIENTED_EDGE ( 'NONE', *, *, #263, .T. ) ;
#90 = AXIS2_PLACEMENT_3D ( 'NONE', #154, #186, #281 ) ;
#91 = CARTESIAN_POINT ( 'NONE',  ( 2.025059176529017346E-13, -7.102951435054648059E-15, 58.00000000000000000 ) ) ;
#92 = CARTESIAN_POINT ( 'NONE',  ( 4.615366004877049543E-15, -1.618852474416770939E-16, 1.321893361860643434 ) ) ;
#93 = ORIENTED_EDGE ( 'NONE', *, *, #212, .T. ) ;
#94 = CARTESIAN_POINT ( 'NONE',  ( 9.406829180973304030E-31, 2.199999999999998845, 2.694222958124175527E-16 ) ) ;
#95 = ORIENTED_EDGE ( 'NONE', *, *, #48, .T. ) ;
#96 = CARTESIAN_POINT ( 'NONE',  ( 6.284666409917640040E-14, -2.204364238465235428E-15, 18.00000000000000000 ) ) ;
#97 = EDGE_CURVE ( 'NONE', #285, #176, #305, .T. ) ;
#98 = DIRECTION ( 'NONE',  ( -3.491481338843133355E-15, 1.224646799147353207E-16, -1.000000000000000000 ) ) ;
#99 = ORIENTED_EDGE ( 'NONE', *, *, #41, .T. ) ;
#100 = EDGE_CURVE ( 'NONE', #316, #26, #185, .T. ) ;
#101 = AXIS2_PLACEMENT_3D ( 'NONE', #256, #336, #87 ) ;
#102 = CC_DESIGN_APPROVAL ( #118, ( #22 ) ) ;
#103 = APPROVAL_STATUS ( 'not_yet_approved' ) ;
#104 = ADVANCED_FACE ( 'NONE', ( #111 ), #191, .T. ) ;
#105 = CC_DESIGN_DATE_AND_TIME_ASSIGNMENT ( #309, #312, ( #3 ) ) ;
#106 = PERSON_AND_ORGANIZATION_ROLE ( 'design_owner' ) ;
#107 = DIRECTION ( 'NONE',  ( 3.491481338843133355E-15, -1.224646799147353207E-16, 1.000000000000000000 ) ) ;
#108 = ORGANIZATION ( 'UNSPECIFIED', 'UNSPECIFIED', '' ) ;
#109 = PRODUCT_DEFINITION_SHAPE ( 'NONE', 'NONE',  #3 ) ;
#110 = ORIENTED_EDGE ( 'NONE', *, *, #21, .T. ) ;
#111 = FACE_OUTER_BOUND ( 'NONE', #199, .T. ) ;
#112 = CIRCLE ( 'NONE', #152, 2.199999999999996181 ) ;
#113 = AXIS2_PLACEMENT_3D ( 'NONE', #91, #197, #36 ) ;
#114 = DIRECTION ( 'NONE',  ( 1.903218546456022717E-15, 0.8571673007021097801, 0.5150380749100585964 ) ) ;
#115 = ADVANCED_FACE ( 'NONE', ( #210 ), #46, .T. ) ;
#116 = ORIENTED_EDGE ( 'NONE', *, *, #51, .F. ) ;
#117 = DIRECTION ( 'NONE',  ( 4.275831445896958607E-31, 1.000000000000000000, 1.224646799147353207E-16 ) ) ;
#118 = APPROVAL ( #261, 'UNSPECIFIED' ) ;
#119 = DIRECTION ( 'NONE',  ( -3.491481338843133355E-15, 1.224646799147353207E-16, -1.000000000000000000 ) ) ;
#120 = ORIENTED_EDGE ( 'NONE', *, *, #51, .T. ) ;
#121 = DIRECTION ( 'NONE',  ( -3.491481338843133355E-15, 1.224646799147353207E-16, -1.000000000000000000 ) ) ;
#122 = FACE_OUTER_BOUND ( 'NONE', #128, .T. ) ;
#123 = AXIS2_PLACEMENT_3D ( 'NONE', #253, #52, #2 ) ;
#124 = CARTESIAN_POINT ( 'NONE',  ( 6.284666409917640040E-14, -2.204364238465235428E-15, 18.00000000000000000 ) ) ;
#125 = ORIENTED_EDGE ( 'NONE', *, *, #188, .F. ) ;
#126 = PERSON_AND_ORGANIZATION ( #209, #108 ) ;
#127 = VECTOR ( 'NONE', #64, 1000.000000000000000 ) ;
#128 = EDGE_LOOP ( 'NONE', ( #95, #326 ) ) ;
#129 = CARTESIAN_POINT ( 'NONE',  ( 4.884788300689468131E-15, 2.199999999999993960, 1.321893361860643656 ) ) ;
#130 = AXIS2_PLACEMENT_3D ( 'NONE', #124, #148, #72 ) ;
#131 = LOCAL_TIME ( 9, 21, 48.00000000000000000, #69 ) ;
#132 = CARTESIAN_POINT ( 'NONE',  ( 3.400043734783911319E-14, -2.199999999999998401, 18.00000000000000000 ) ) ;
#133 = VERTEX_POINT ( 'NONE', #207 ) ;
#134 = ADVANCED_FACE ( 'NONE', ( #307 ), #82, .T. ) ;
#135 = DIRECTION ( 'NONE',  ( -3.501690807976802213E-31, -1.000000000000000000, -9.856383386231885944E-17 ) ) ;
#136 = VECTOR ( 'NONE', #298, 1000.000000000000000 ) ;
#137 = CALENDAR_DATE ( 2021, 3, 9 ) ;
#138 = CARTESIAN_POINT ( 'NONE',  ( 4.615366004877048754E-15, -2.199999999999993960, 1.321893361860643212 ) ) ;
#139 = ORIENTED_EDGE ( 'NONE', *, *, #97, .F. ) ;
#140 = DIRECTION ( 'NONE',  ( 0.0000000000000000000, 1.000000000000000000, 0.0000000000000000000 ) ) ;
#141 = ORIENTED_EDGE ( 'NONE', *, *, #162, .T. ) ;
#142 = DIRECTION ( 'NONE',  ( -3.491481338843133355E-15, 1.224646799147353207E-16, -1.000000000000000000 ) ) ;
#143 = CIRCLE ( 'NONE', #84, 2.199999999999996181 ) ;
#144 = CARTESIAN_POINT ( 'NONE',  ( 2.007601769834801490E-13, 2.199999999999993960, 57.49999999999999289 ) ) ;
#145 = DIRECTION ( 'NONE',  ( 3.501690807976802213E-31, 1.000000000000000000, 9.856383386231885944E-17 ) ) ;
#146 = DIRECTION ( 'NONE',  ( 3.491481338843133355E-15, -1.224646799147353207E-16, 1.000000000000000000 ) ) ;
#147 = CARTESIAN_POINT ( 'NONE',  ( 2.027141076087567919E-13, -1.700000000000008393, 58.00000000000000000 ) ) ;
#148 = DIRECTION ( 'NONE',  ( -3.491481338843133355E-15, 1.224646799147353207E-16, -1.000000000000000000 ) ) ;
#149 = EDGE_CURVE ( 'NONE', #311, #176, #20, .T. ) ;
#150 = DIRECTION ( 'NONE',  ( 3.501690807976802213E-31, 1.000000000000000000, 9.856383386231885944E-17 ) ) ;
#151 = ADVANCED_FACE ( 'NONE', ( #8 ), #33, .F. ) ;
#152 = AXIS2_PLACEMENT_3D ( 'NONE', #167, #29, #234 ) ;
#153 = EDGE_LOOP ( 'NONE', ( #237, #141, #260, #125 ) ) ;
#154 = CARTESIAN_POINT ( 'NONE',  ( 0.0000000000000000000, 0.0000000000000000000, 0.0000000000000000000 ) ) ;
#155 = PRODUCT ( '29689', '29689', '', ( #255 ) ) ;
#156 = EDGE_CURVE ( 'NONE', #337, #4, #143, .T. ) ;
#157 = ORIENTED_EDGE ( 'NONE', *, *, #222, .F. ) ;
#158 = APPROVAL_ROLE ( '' ) ;
#159 = CARTESIAN_POINT ( 'NONE',  ( 0.0000000000000000000, 0.0000000000000000000, 0.0000000000000000000 ) ) ;
#160 = ORIENTED_EDGE ( 'NONE', *, *, #188, .T. ) ;
#161 = DATE_AND_TIME ( #165, #228 ) ;
#162 = EDGE_CURVE ( 'NONE', #316, #133, #262, .T. ) ;
#163 = CARTESIAN_POINT ( 'NONE',  ( 4.615366004877049543E-15, -1.618852474416770939E-16, 1.321893361860643434 ) ) ;
#164 = EDGE_LOOP ( 'NONE', ( #75, #218 ) ) ;
#165 = CALENDAR_DATE ( 2021, 3, 9 ) ;
#166 = ADVANCED_FACE ( 'NONE', ( #122 ), #238, .F. ) ;
#167 = CARTESIAN_POINT ( 'NONE',  ( 6.284666409917640040E-14, -2.204364238465235428E-15, 18.00000000000000000 ) ) ;
#168 = DIRECTION ( 'NONE',  ( -3.491481338843133355E-15, 1.224646799147353207E-16, -1.000000000000000000 ) ) ;
#169 = PERSON_AND_ORGANIZATION ( #209, #108 ) ;
#170 = DIRECTION ( 'NONE',  ( -2.382254525458736008E-15, -0.7071067811865420216, -0.7071067811865531239 ) ) ;
#171 = PERSON_AND_ORGANIZATION_ROLE ( 'design_supplier' ) ;
#172 = FACE_OUTER_BOUND ( 'NONE', #70, .T. ) ;
#173 = ADVANCED_FACE ( 'NONE', ( #32 ), #300, .T. ) ;
#174 = AXIS2_PLACEMENT_3D ( 'NONE', #92, #299, #265 ) ;
#175 = ORIENTED_EDGE ( 'NONE', *, *, #9, .T. ) ;
#176 = VERTEX_POINT ( 'NONE', #327 ) ;
#177 = CARTESIAN_POINT ( 'NONE',  ( 4.615366004877048754E-15, -2.199999999999993960, 1.321893361860643212 ) ) ;
#178 = EDGE_LOOP ( 'NONE', ( #23, #93, #99 ) ) ;
#179 = EDGE_LOOP ( 'NONE', ( #275, #215, #175 ) ) ;
#180 = AXIS2_PLACEMENT_3D ( 'NONE', #88, #168, #117 ) ;
#181 = APPROVAL_PERSON_ORGANIZATION ( #211, #291, #158 ) ;
#182 = MANIFOLD_SOLID_BREP ( 'Corps-Déplacer/Copier1[2]', #322 ) ;
#183 = CC_DESIGN_PERSON_AND_ORGANIZATION_ASSIGNMENT ( #196, #11, ( #3 ) ) ;
#184 = CARTESIAN_POINT ( 'NONE',  ( 2.025059176529017346E-13, -7.102951435054648059E-15, 58.00000000000000000 ) ) ;
#185 = CIRCLE ( 'NONE', #101, 1.700000000000001288 ) ;
#186 = DIRECTION ( 'NONE',  ( -3.491481338843133355E-15, 1.224646799147353207E-16, -1.000000000000000000 ) ) ;
#187 = VECTOR ( 'NONE', #170, 999.9999999999998863 ) ;
#188 = EDGE_CURVE ( 'NONE', #26, #266, #235, .T. ) ;
#189 = CARTESIAN_POINT ( 'NONE',  ( 1.320728428371406491E-13, -2.199999999999998401, 18.00000000000000000 ) ) ;
#190 = PERSON_AND_ORGANIZATION ( #209, #108 ) ;
#191 = CYLINDRICAL_SURFACE ( 'NONE', #282, 2.199999999999995293 ) ;
#192 = ADVANCED_BREP_SHAPE_REPRESENTATION ( '29689', ( #58, #182, #252 ), #240 ) ;
#193 = LINE ( 'NONE', #94, #278 ) ;
#194 = VECTOR ( 'NONE', #114, 999.9999999999998863 ) ;
#195 = PRODUCT_DEFINITION_FORMATION_WITH_SPECIFIED_SOURCE ( 'ANY', '', #155, .NOT_KNOWN. ) ;
#196 = PERSON_AND_ORGANIZATION ( #209, #108 ) ;
#197 = DIRECTION ( 'NONE',  ( -3.491481338843133355E-15, 1.224646799147353207E-16, -1.000000000000000000 ) ) ;
#198 = DIRECTION ( 'NONE',  ( 4.275831445896958607E-31, 1.000000000000000000, 1.224646799147353207E-16 ) ) ;
#199 = EDGE_LOOP ( 'NONE', ( #110, #89, #61, #139 ) ) ;
#200 = VECTOR ( 'NONE', #119, 1000.000000000000000 ) ;
#201 = FACE_OUTER_BOUND ( 'NONE', #43, .T. ) ;
#202 = CC_DESIGN_PERSON_AND_ORGANIZATION_ASSIGNMENT ( #169, #219, ( #195 ) ) ;
#203 = CC_DESIGN_PERSON_AND_ORGANIZATION_ASSIGNMENT ( #286, #62, ( #22 ) ) ;
#204 = ORIENTED_EDGE ( 'NONE', *, *, #97, .T. ) ;
#205 = EDGE_CURVE ( 'NONE', #335, #285, #112, .T. ) ;
#206 = CLOSED_SHELL ( 'NONE', ( #279, #248, #166, #173, #301, #151 ) ) ;
#207 = CARTESIAN_POINT ( 'NONE',  ( 1.320728428371405481E-13, -2.200000000000007727, 57.49999999999999289 ) ) ;
#208 = LOCAL_TIME ( 9, 21, 48.00000000000000000, #1 ) ;
#209 = PERSON ( 'UNSPECIFIED', 'UNSPECIFIED', 'UNSPECIFIED', ('UNSPECIFIED'), ('UNSPECIFIED'), ('UNSPECIFIED') ) ;
#210 = FACE_OUTER_BOUND ( 'NONE', #179, .T. ) ;
#211 = PERSON_AND_ORGANIZATION ( #209, #108 ) ;
#212 = EDGE_CURVE ( 'NONE', #311, #296, #71, .T. ) ;
#213 = EDGE_LOOP ( 'NONE', ( #157, #120, #257, #10 ) ) ;
#214 = DATE_AND_TIME ( #229, #331 ) ;
#215 = ORIENTED_EDGE ( 'NONE', *, *, #149, .T. ) ;
#216 = DATE_AND_TIME ( #137, #80 ) ;
#217 = CARTESIAN_POINT ( 'NONE',  ( 2.694222958124162215E-16, -2.199999999999995293, -2.694222958124180458E-16 ) ) ;
#218 = ORIENTED_EDGE ( 'NONE', *, *, #100, .F. ) ;
#219 = PERSON_AND_ORGANIZATION_ROLE ( 'creator' ) ;
#220 = CARTESIAN_POINT ( 'NONE',  ( 2.694222958124166653E-16, -2.199999999999998845, -2.694222958124184895E-16 ) ) ;
#221 = DIRECTION ( 'NONE',  ( 4.275831445896958607E-31, 1.000000000000000000, 1.224646799147353207E-16 ) ) ;
#222 = EDGE_CURVE ( 'NONE', #133, #337, #324, .T. ) ;
#223 = DIRECTION ( 'NONE',  ( -4.275831445896958607E-31, -1.000000000000000000, -1.224646799147353207E-16 ) ) ;
#224 = ORIENTED_EDGE ( 'NONE', *, *, #222, .T. ) ;
#225 = CIRCLE ( 'NONE', #74, 2.199999999999993960 ) ;
#226 = CIRCLE ( 'NONE', #251, 2.200000000000001066 ) ;
#227 = CIRCLE ( 'NONE', #130, 2.199999999999996181 ) ;
#228 = LOCAL_TIME ( 9, 21, 48.00000000000000000, #297 ) ;
#229 = CALENDAR_DATE ( 2021, 3, 9 ) ;
#230 = ORIENTED_EDGE ( 'NONE', *, *, #273, .F. ) ;
#231 = APPROVAL_ROLE ( '' ) ;
#232 =( NAMED_UNIT ( * ) PLANE_ANGLE_UNIT ( ) SI_UNIT ( $, .RADIAN. ) );
#233 = PERSON_AND_ORGANIZATION ( #209, #108 ) ;
#234 = DIRECTION ( 'NONE',  ( 0.0000000000000000000, 1.000000000000000000, 0.0000000000000000000 ) ) ;
#235 = LINE ( 'NONE', #289, #127 ) ;
#236 = ORIENTED_EDGE ( 'NONE', *, *, #100, .T. ) ;
#237 = ORIENTED_EDGE ( 'NONE', *, *, #325, .T. ) ;
#238 = PLANE ( 'NONE',  #38 ) ;
#239 = VECTOR ( 'NONE', #79, 1000.000000000000000 ) ;
#240 =( GEOMETRIC_REPRESENTATION_CONTEXT ( 3 ) GLOBAL_UNCERTAINTY_ASSIGNED_CONTEXT ( ( #292 ) ) GLOBAL_UNIT_ASSIGNED_CONTEXT ( ( #284, #232, #39 ) ) REPRESENTATION_CONTEXT ( 'NONE', 'WORKASPACE' ) );
#241 = CYLINDRICAL_SURFACE ( 'NONE', #329, 2.199999999999998845 ) ;
#242 = APPLICATION_PROTOCOL_DEFINITION ( 'international standard', 'config_control_design', 1994, #319 ) ;
#243 = CARTESIAN_POINT ( 'NONE',  ( 6.284666409917640040E-14, -2.204364238465235428E-15, 18.00000000000000000 ) ) ;
#244 = CARTESIAN_POINT ( 'NONE',  ( 6.284666409917640040E-14, 1.649735760928037347E-32, 18.00000000000000000 ) ) ;
#245 = CARTESIAN_POINT ( 'NONE',  ( 6.284666409917640040E-14, 1.649735760928037347E-32, 18.00000000000000000 ) ) ;
#246 = CARTESIAN_POINT ( 'NONE',  ( 2.007601769834801490E-13, -7.041719095097280485E-15, 57.49999999999999289 ) ) ;
#247 = AXIS2_PLACEMENT_3D ( 'NONE', #184, #83, #81 ) ;
#248 = ADVANCED_FACE ( 'NONE', ( #172 ), #241, .T. ) ;
#249 = CIRCLE ( 'NONE', #264, 2.199999999999996181 ) ;
#250 = PERSON_AND_ORGANIZATION ( #209, #108 ) ;
#251 = AXIS2_PLACEMENT_3D ( 'NONE', #246, #142, #272 ) ;
#252 = AXIS2_PLACEMENT_3D ( 'NONE', #259, #59, #310 ) ;
#253 = CARTESIAN_POINT ( 'NONE',  ( 2.007601769834801490E-13, -7.041719095097280485E-15, 57.49999999999999289 ) ) ;
#254 = ORIENTED_EDGE ( 'NONE', *, *, #48, .F. ) ;
#255 = MECHANICAL_CONTEXT ( 'NONE', #319, 'mechanical' ) ;
#256 = CARTESIAN_POINT ( 'NONE',  ( 2.025059176529017346E-13, -7.102951435054648059E-15, 58.00000000000000000 ) ) ;
#257 = ORIENTED_EDGE ( 'NONE', *, *, #273, .T. ) ;
#258 = DATE_AND_TIME ( #5, #131 ) ;
#259 = CARTESIAN_POINT ( 'NONE',  ( 0.0000000000000000000, 0.0000000000000000000, 0.0000000000000000000 ) ) ;
#260 = ORIENTED_EDGE ( 'NONE', *, *, #34, .F. ) ;
#261 = APPROVAL_STATUS ( 'not_yet_approved' ) ;
#262 = LINE ( 'NONE', #147, #187 ) ;
#263 = EDGE_CURVE ( 'NONE', #335, #296, #268, .T. ) ;
#264 = AXIS2_PLACEMENT_3D ( 'NONE', #243, #55, #283 ) ;
#265 = DIRECTION ( 'NONE',  ( -3.501690807976802213E-31, -1.000000000000000000, -9.856383386231885944E-17 ) ) ;
#266 = VERTEX_POINT ( 'NONE', #144 ) ;
#267 = PLANE ( 'NONE',  #323 ) ;
#268 = LINE ( 'NONE', #217, #136 ) ;
#269 = CARTESIAN_POINT ( 'NONE',  ( 2.025059176529017346E-13, 1.699999999999993960, 58.00000000000000000 ) ) ;
#270 = DIRECTION ( 'NONE',  ( -3.491481338843133355E-15, 1.224646799147353207E-16, -1.000000000000000000 ) ) ;
#271 = AXIS2_PLACEMENT_3D ( 'NONE', #328, #73, #221 ) ;
#272 = DIRECTION ( 'NONE',  ( 0.0000000000000000000, 1.000000000000000000, 0.0000000000000000000 ) ) ;
#273 = EDGE_CURVE ( 'NONE', #266, #4, #193, .T. ) ;
#274 = DIRECTION ( 'NONE',  ( -3.491481338843133355E-15, 1.224646799147353207E-16, -1.000000000000000000 ) ) ;
#275 = ORIENTED_EDGE ( 'NONE', *, *, #212, .F. ) ;
#276 = CARTESIAN_POINT ( 'NONE',  ( 2.025059176529017346E-13, -7.102951435054648059E-15, 58.00000000000000000 ) ) ;
#277 = CARTESIAN_POINT ( 'NONE',  ( 4.615366004877049543E-15, -1.618852474416770939E-16, 1.321893361860643434 ) ) ;
#278 = VECTOR ( 'NONE', #270, 1000.000000000000000 ) ;
#279 = ADVANCED_FACE ( 'NONE', ( #293 ), #313, .T. ) ;
#280 = FACE_OUTER_BOUND ( 'NONE', #178, .T. ) ;
#281 = DIRECTION ( 'NONE',  ( 4.275831445896958607E-31, 1.000000000000000000, 1.224646799147353207E-16 ) ) ;
#282 = AXIS2_PLACEMENT_3D ( 'NONE', #159, #287, #63 ) ;
#283 = DIRECTION ( 'NONE',  ( 0.0000000000000000000, 1.000000000000000000, 0.0000000000000000000 ) ) ;
#284 =( LENGTH_UNIT ( ) NAMED_UNIT ( * ) SI_UNIT ( .MILLI., .METRE. ) );
#285 = VERTEX_POINT ( 'NONE', #12 ) ;
#286 = PERSON_AND_ORGANIZATION ( #209, #108 ) ;
#287 = DIRECTION ( 'NONE',  ( -3.491481338843133355E-15, 1.224646799147353207E-16, -1.000000000000000000 ) ) ;
#288 = ORIENTED_EDGE ( 'NONE', *, *, #34, .T. ) ;
#289 = CARTESIAN_POINT ( 'NONE',  ( 2.025059176529017346E-13, 1.699999999999993960, 58.00000000000000000 ) ) ;
#290 = APPROVAL_DATE_TIME ( #216, #118 ) ;
#291 = APPROVAL ( #320, 'UNSPECIFIED' ) ;
#292 = UNCERTAINTY_MEASURE_WITH_UNIT (LENGTH_MEASURE( 1.000000000000000082E-05 ), #284, 'distance_accuracy_value', 'NONE');
#293 = FACE_OUTER_BOUND ( 'NONE', #153, .T. ) ;
#294 = CIRCLE ( 'NONE', #123, 2.200000000000001066 ) ;
#295 = CC_DESIGN_APPROVAL ( #25, ( #3 ) ) ;
#296 = VERTEX_POINT ( 'NONE', #177 ) ;
#297 = COORDINATED_UNIVERSAL_TIME_OFFSET ( 1, 0, .AHEAD. ) ;
#298 = DIRECTION ( 'NONE',  ( -3.491481338843133355E-15, 1.224646799147353207E-16, -1.000000000000000000 ) ) ;
#299 = DIRECTION ( 'NONE',  ( 3.491481338843133355E-15, -1.224646799147353207E-16, 1.000000000000000000 ) ) ;
#300 = CYLINDRICAL_SURFACE ( 'NONE', #271, 2.199999999999998845 ) ;
#301 = ADVANCED_FACE ( 'NONE', ( #201 ), #57, .T. ) ;
#302 = CARTESIAN_POINT ( 'NONE',  ( 6.284666409917640040E-14, 2.199999999999993960, 18.00000000000000000 ) ) ;
#303 = DIRECTION ( 'NONE',  ( 0.0000000000000000000, 1.000000000000000000, 0.0000000000000000000 ) ) ;
#304 = CARTESIAN_POINT ( 'NONE',  ( 2.018718534440246766E-13, -1.700000000000008393, 58.00000000000000000 ) ) ;
#305 = LINE ( 'NONE', #60, #239 ) ;
#306 = CONICAL_SURFACE ( 'NONE', #174, 2.199999999999993960, 1.029744258676649649 ) ;
#307 = FACE_OUTER_BOUND ( 'NONE', #37, .T. ) ;
#308 = ADVANCED_FACE ( 'NONE', ( #76 ), #267, .T. ) ;
#309 = DATE_AND_TIME ( #317, #208 ) ;
#310 = DIRECTION ( 'NONE',  ( 1.000000000000000000, 0.0000000000000000000, 0.0000000000000000000 ) ) ;
#311 = VERTEX_POINT ( 'NONE', #45 ) ;
#312 = DATE_TIME_ROLE ( 'creation_date' ) ;
#313 = CONICAL_SURFACE ( 'NONE', #113, 1.700000000000001288, 0.7853981633974407295 ) ;
#314 = ORIENTED_EDGE ( 'NONE', *, *, #205, .F. ) ;
#315 = SECURITY_CLASSIFICATION_LEVEL ( 'unclassified' ) ;
#316 = VERTEX_POINT ( 'NONE', #304 ) ;
#317 = CALENDAR_DATE ( 2021, 3, 9 ) ;
#318 = DIRECTION ( 'NONE',  ( 1.798245827342160317E-15, -0.8571673007021098911, 0.5150380749100582634 ) ) ;
#319 = APPLICATION_CONTEXT ( 'configuration controlled 3d designs of mechanical parts and assemblies' ) ;
#320 = APPROVAL_STATUS ( 'not_yet_approved' ) ;
#321 = DIRECTION ( 'NONE',  ( -3.491481338843133355E-15, 1.224646799147353207E-16, -1.000000000000000000 ) ) ;
#322 = CLOSED_SHELL ( 'NONE', ( #104, #115, #333, #134, #308 ) ) ;
#323 = AXIS2_PLACEMENT_3D ( 'NONE', #245, #146, #77 ) ;
#324 = LINE ( 'NONE', #220, #200 ) ;
#325 = EDGE_CURVE ( 'NONE', #26, #316, #334, .T. ) ;
#326 = ORIENTED_EDGE ( 'NONE', *, *, #156, .T. ) ;
#327 = CARTESIAN_POINT ( 'NONE',  ( 4.884788300689468131E-15, 2.199999999999993960, 1.321893361860643656 ) ) ;
#328 = CARTESIAN_POINT ( 'NONE',  ( 0.0000000000000000000, 0.0000000000000000000, 0.0000000000000000000 ) ) ;
#329 = AXIS2_PLACEMENT_3D ( 'NONE', #7, #321, #198 ) ;
#330 = CC_DESIGN_PERSON_AND_ORGANIZATION_ASSIGNMENT ( #126, #106, ( #155 ) ) ;
#331 = LOCAL_TIME ( 9, 21, 48.00000000000000000, #332 ) ;
#332 = COORDINATED_UNIVERSAL_TIME_OFFSET ( 1, 0, .AHEAD. ) ;
#333 = ADVANCED_FACE ( 'NONE', ( #280 ), #306, .T. ) ;
#334 = CIRCLE ( 'NONE', #247, 1.700000000000001288 ) ;
#335 = VERTEX_POINT ( 'NONE', #132 ) ;
#336 = DIRECTION ( 'NONE',  ( -3.491481338843133355E-15, 1.224646799147353207E-16, -1.000000000000000000 ) ) ;
#337 = VERTEX_POINT ( 'NONE', #189 ) ;
ENDSEC;
END-ISO-10303-21;
