ISO-10303-21;
HEADER;
FILE_DESCRIPTION (( 'STEP AP203' ),
    '1' );
FILE_NAME ('2957.step',
    '2021-12-06T12:58:38',
    ( '' ),
    ( '' ),
    'SwSTEP 2.0',
    'SolidWorks 2019',
    '' );
FILE_SCHEMA (( 'CONFIG_CONTROL_DESIGN' ));
ENDSEC;

DATA;
#1 = CIRCLE ( 'NONE', #71, 25.00000000000000000 ) ;
#2 = DIRECTION ( 'NONE',  ( -3.491481338843133355E-15, 1.924444970088697756E-16, -1.000000000000000000 ) ) ;
#3 = DATE_TIME_ROLE ( 'classification_date' ) ;
#4 = PERSON_AND_ORGANIZATION ( #136, #140 ) ;
#5 = EDGE_LOOP ( 'NONE', ( #112 ) ) ;
#6 = CC_DESIGN_PERSON_AND_ORGANIZATION_ASSIGNMENT ( #168, #11, ( #16 ) ) ;
#7 = EDGE_LOOP ( 'NONE', ( #166 ) ) ;
#8 = CYLINDRICAL_SURFACE ( 'NONE', #58, 25.00000000000000000 ) ;
#9 = PLANE ( 'NONE',  #91 ) ;
#10 = CC_DESIGN_PERSON_AND_ORGANIZATION_ASSIGNMENT ( #169, #52, ( #27 ) ) ;
#11 = PERSON_AND_ORGANIZATION_ROLE ( 'creator' ) ;
#12 = AXIS2_PLACEMENT_3D ( 'NONE', #45, #74, #124 ) ;
#13 = DIRECTION ( 'NONE',  ( 6.779273404243070203E-31, 1.000000000000000000, 1.908195823574487804E-16 ) ) ;
#14 =( NAMED_UNIT ( * ) PLANE_ANGLE_UNIT ( ) SI_UNIT ( $, .RADIAN. ) );
#15 = CARTESIAN_POINT ( 'NONE',  ( 0.0000000000000000000, 0.0000000000000000000, 0.0000000000000000000 ) ) ;
#16 = PRODUCT_DEFINITION ( 'UNKNOWN', '', #134, #111 ) ;
#17 = APPROVAL_PERSON_ORGANIZATION ( #147, #104, #36 ) ;
#18 = DIRECTION ( 'NONE',  ( -6.719163700695219792E-31, -1.000000000000000000, -1.924444970088697756E-16 ) ) ;
#19 = EDGE_LOOP ( 'NONE', ( #32 ) ) ;
#20 = AXIS2_PLACEMENT_3D ( 'NONE', #125, #44, #60 ) ;
#21 = CALENDAR_DATE ( 2021, 6, 12 ) ;
#22 = DIRECTION ( 'NONE',  ( 6.719163700695220667E-31, 1.000000000000000000, 1.924444970088697756E-16 ) ) ;
#23 = PERSON_AND_ORGANIZATION_ROLE ( 'creator' ) ;
#24 = APPLICATION_PROTOCOL_DEFINITION ( 'international standard', 'config_control_design', 1994, #113 ) ;
#25 = SECURITY_CLASSIFICATION_LEVEL ( 'unclassified' ) ;
#26 = CARTESIAN_POINT ( 'NONE',  ( 2.444036937190176388E-15, -1.347111479062079136E-16, 0.6999999999999950706 ) ) ;
#27 = PRODUCT ( '2957', '2957', '', ( #53 ) ) ;
#28 = CC_DESIGN_PERSON_AND_ORGANIZATION_ASSIGNMENT ( #4, #23, ( #134 ) ) ;
#29 = CC_DESIGN_APPROVAL ( #104, ( #16 ) ) ;
#30 = EDGE_LOOP ( 'NONE', ( #154 ) ) ;
#31 = ORIENTED_EDGE ( 'NONE', *, *, #69, .T. ) ;
#32 = ORIENTED_EDGE ( 'NONE', *, *, #110, .F. ) ;
#33 = ORIENTED_EDGE ( 'NONE', *, *, #139, .T. ) ;
#34 = AXIS2_PLACEMENT_3D ( 'NONE', #88, #80, #22 ) ;
#35 = DATE_TIME_ROLE ( 'creation_date' ) ;
#36 = APPROVAL_ROLE ( '' ) ;
#37 = APPROVAL_STATUS ( 'not_yet_approved' ) ;
#38 = DIRECTION ( 'NONE',  ( 0.0000000000000000000, 0.0000000000000000000, 1.000000000000000000 ) ) ;
#39 = COORDINATED_UNIVERSAL_TIME_OFFSET ( 1, 0, .AHEAD. ) ;
#40 = CC_DESIGN_PERSON_AND_ORGANIZATION_ASSIGNMENT ( #81, #118, ( #49 ) ) ;
#41 = APPROVAL_ROLE ( '' ) ;
#42 = PRODUCT_DEFINITION_SHAPE ( 'NONE', 'NONE',  #16 ) ;
#43 = CIRCLE ( 'NONE', #83, 6.500000000000000000 ) ;
#44 = DIRECTION ( 'NONE',  ( -3.491481338843133355E-15, 1.924444970088697756E-16, -1.000000000000000000 ) ) ;
#45 = CARTESIAN_POINT ( 'NONE',  ( -6.215226423143079424E-30, 6.500000000000000000, -1.780111597332045357E-15 ) ) ;
#46 = FACE_OUTER_BOUND ( 'NONE', #30, .T. ) ;
#47 = FACE_BOUND ( 'NONE', #165, .T. ) ;
#48 = APPROVAL_DATE_TIME ( #82, #104 ) ;
#49 = SECURITY_CLASSIFICATION ( '', '', #25 ) ;
#50 = COORDINATED_UNIVERSAL_TIME_OFFSET ( 1, 0, .AHEAD. ) ;
#51 = CYLINDRICAL_SURFACE ( 'NONE', #148, 6.500000000000000000 ) ;
#52 = PERSON_AND_ORGANIZATION_ROLE ( 'design_owner' ) ;
#53 = MECHANICAL_CONTEXT ( 'NONE', #78, 'mechanical' ) ;
#54 = PERSON_AND_ORGANIZATION ( #136, #140 ) ;
#55 = APPROVAL_DATE_TIME ( #108, #59 ) ;
#56 = ADVANCED_FACE ( 'NONE', ( #141, #62 ), #151, .T. ) ;
#57 = APPROVAL_PERSON_ORGANIZATION ( #54, #164, #85 ) ;
#58 = AXIS2_PLACEMENT_3D ( 'NONE', #163, #63, #114 ) ;
#59 = APPROVAL ( #143, 'UNSPECIFIED' ) ;
#60 = DIRECTION ( 'NONE',  ( 6.518532119464490849E-31, 1.000000000000000000, 2.001604010742469762E-16 ) ) ;
#61 = EDGE_LOOP ( 'NONE', ( #33 ) ) ;
#62 = FACE_BOUND ( 'NONE', #7, .T. ) ;
#63 = DIRECTION ( 'NONE',  ( -3.491481338843133355E-15, 1.924444970088697756E-16, -1.000000000000000000 ) ) ;
#64 = EDGE_LOOP ( 'NONE', ( #77 ) ) ;
#65 = LOCAL_TIME ( 13, 58, 38.00000000000000000, #39 ) ;
#66 = APPROVAL_DATE_TIME ( #129, #164 ) ;
#67 = DIRECTION ( 'NONE',  ( -3.491481338843133355E-15, 1.924444970088697756E-16, -1.000000000000000000 ) ) ;
#68 = CARTESIAN_POINT ( 'NONE',  ( 0.0000000000000000000, 6.500000000000000000, 0.0000000000000000000 ) ) ;
#69 = EDGE_CURVE ( 'NONE', #106, #106, #123, .T. ) ;
#70 = CC_DESIGN_DATE_AND_TIME_ASSIGNMENT ( #159, #35, ( #16 ) ) ;
#71 = AXIS2_PLACEMENT_3D ( 'NONE', #26, #2, #13 ) ;
#72 = ADVANCED_FACE ( 'NONE', ( #75, #46 ), #8, .T. ) ;
#73 = LOCAL_TIME ( 13, 58, 38.00000000000000000, #84 ) ;
#74 = DIRECTION ( 'NONE',  ( -3.491481338843133355E-15, 1.924444970088697756E-16, -1.000000000000000000 ) ) ;
#75 = FACE_OUTER_BOUND ( 'NONE', #5, .T. ) ;
#76 = CC_DESIGN_APPROVAL ( #164, ( #49 ) ) ;
#77 = ORIENTED_EDGE ( 'NONE', *, *, #69, .F. ) ;
#78 = APPLICATION_CONTEXT ( 'configuration controlled 3d designs of mechanical parts and assemblies' ) ;
#79 = DATE_AND_TIME ( #132, #73 ) ;
#80 = DIRECTION ( 'NONE',  ( -3.491481338843133355E-15, 1.924444970088697756E-16, -1.000000000000000000 ) ) ;
#81 = PERSON_AND_ORGANIZATION ( #136, #140 ) ;
#82 = DATE_AND_TIME ( #21, #120 ) ;
#83 = AXIS2_PLACEMENT_3D ( 'NONE', #145, #67, #115 ) ;
#84 = COORDINATED_UNIVERSAL_TIME_OFFSET ( 1, 0, .AHEAD. ) ;
#85 = APPROVAL_ROLE ( '' ) ;
#86 = CLOSED_SHELL ( 'NONE', ( #56, #72, #87, #99 ) ) ;
#87 = ADVANCED_FACE ( 'NONE', ( #47, #155 ), #9, .T. ) ;
#88 = CARTESIAN_POINT ( 'NONE',  ( -1.679790925173805219E-29, 9.258721107249223948E-31, -4.811112425221744612E-15 ) ) ;
#89 = PERSON_AND_ORGANIZATION ( #136, #140 ) ;
#90 = CARTESIAN_POINT ( 'NONE',  ( 2.444036937190193349E-15, 25.00000000000000000, 0.6999999999999998446 ) ) ;
#91 = AXIS2_PLACEMENT_3D ( 'NONE', #96, #137, #18 ) ;
#92 = COORDINATED_UNIVERSAL_TIME_OFFSET ( 1, 0, .AHEAD. ) ;
#93 = DIRECTION ( 'NONE',  ( 1.000000000000000000, 0.0000000000000000000, 0.0000000000000000000 ) ) ;
#94 = UNCERTAINTY_MEASURE_WITH_UNIT (LENGTH_MEASURE( 1.000000000000000082E-05 ), #133, 'distance_accuracy_value', 'NONE');
#95 =( GEOMETRIC_REPRESENTATION_CONTEXT ( 3 ) GLOBAL_UNCERTAINTY_ASSIGNED_CONTEXT ( ( #94 ) ) GLOBAL_UNIT_ASSIGNED_CONTEXT ( ( #133, #14, #119 ) ) REPRESENTATION_CONTEXT ( 'NONE', 'WORKASPACE' ) );
#96 = CARTESIAN_POINT ( 'NONE',  ( 2.444036937190187038E-15, 6.500000000000000000, 0.6999999999999981792 ) ) ;
#97 = FACE_OUTER_BOUND ( 'NONE', #126, .T. ) ;
#98 = AXIS2_PLACEMENT_3D ( 'NONE', #160, #38, #93 ) ;
#99 = ADVANCED_FACE ( 'NONE', ( #97, #157 ), #51, .F. ) ;
#100 = CC_DESIGN_APPROVAL ( #59, ( #134 ) ) ;
#101 = CARTESIAN_POINT ( 'NONE',  ( 2.444036937190192954E-15, 6.500000000000000000, 0.6999999999999998446 ) ) ;
#102 = CALENDAR_DATE ( 2021, 6, 12 ) ;
#103 = VERTEX_POINT ( 'NONE', #142 ) ;
#104 = APPROVAL ( #37, 'UNSPECIFIED' ) ;
#105 = CIRCLE ( 'NONE', #34, 25.00000000000000000 ) ;
#106 = VERTEX_POINT ( 'NONE', #101 ) ;
#107 = APPROVAL_STATUS ( 'not_yet_approved' ) ;
#108 = DATE_AND_TIME ( #122, #127 ) ;
#109 = LOCAL_TIME ( 13, 58, 38.00000000000000000, #50 ) ;
#110 = EDGE_CURVE ( 'NONE', #161, #161, #1, .T. ) ;
#111 = DESIGN_CONTEXT ( 'detailed design', #113, 'design' ) ;
#112 = ORIENTED_EDGE ( 'NONE', *, *, #110, .T. ) ;
#113 = APPLICATION_CONTEXT ( 'configuration controlled 3d designs of mechanical parts and assemblies' ) ;
#114 = DIRECTION ( 'NONE',  ( 6.719163700695220667E-31, 1.000000000000000000, 1.924444970088697756E-16 ) ) ;
#115 = DIRECTION ( 'NONE',  ( 6.719163700695219792E-31, 1.000000000000000000, 1.924444970088697756E-16 ) ) ;
#116 = SHAPE_DEFINITION_REPRESENTATION ( #42, #153 ) ;
#117 = DIRECTION ( 'NONE',  ( -3.491481338843133355E-15, 1.924444970088697756E-16, -1.000000000000000000 ) ) ;
#118 = PERSON_AND_ORGANIZATION_ROLE ( 'classification_officer' ) ;
#119 =( NAMED_UNIT ( * ) SI_UNIT ( $, .STERADIAN. ) SOLID_ANGLE_UNIT ( ) );
#120 = LOCAL_TIME ( 13, 58, 38.00000000000000000, #92 ) ;
#121 = PERSON_AND_ORGANIZATION ( #136, #140 ) ;
#122 = CALENDAR_DATE ( 2021, 6, 12 ) ;
#123 = CIRCLE ( 'NONE', #20, 6.500000000000000000 ) ;
#124 = DIRECTION ( 'NONE',  ( 6.719163700695219792E-31, 1.000000000000000000, 1.924444970088697756E-16 ) ) ;
#125 = CARTESIAN_POINT ( 'NONE',  ( 2.444036937190188616E-15, -1.347111479062085545E-16, 0.6999999999999986233 ) ) ;
#126 = EDGE_LOOP ( 'NONE', ( #138 ) ) ;
#127 = LOCAL_TIME ( 13, 58, 38.00000000000000000, #162 ) ;
#128 = EDGE_CURVE ( 'NONE', #130, #130, #43, .T. ) ;
#129 = DATE_AND_TIME ( #144, #65 ) ;
#130 = VERTEX_POINT ( 'NONE', #68 ) ;
#131 = DIRECTION ( 'NONE',  ( 6.719163700695219792E-31, 1.000000000000000000, 1.924444970088697756E-16 ) ) ;
#132 = CALENDAR_DATE ( 2021, 6, 12 ) ;
#133 =( LENGTH_UNIT ( ) NAMED_UNIT ( * ) SI_UNIT ( .MILLI., .METRE. ) );
#134 = PRODUCT_DEFINITION_FORMATION_WITH_SPECIFIED_SOURCE ( 'ANY', '', #27, .NOT_KNOWN. ) ;
#135 = CC_DESIGN_PERSON_AND_ORGANIZATION_ASSIGNMENT ( #121, #146, ( #134 ) ) ;
#136 = PERSON ( 'UNSPECIFIED', 'UNSPECIFIED', 'UNSPECIFIED', ('UNSPECIFIED'), ('UNSPECIFIED'), ('UNSPECIFIED') ) ;
#137 = DIRECTION ( 'NONE',  ( 3.491481338843133355E-15, -1.924444970088697756E-16, 1.000000000000000000 ) ) ;
#138 = ORIENTED_EDGE ( 'NONE', *, *, #128, .T. ) ;
#139 = EDGE_CURVE ( 'NONE', #103, #103, #105, .T. ) ;
#140 = ORGANIZATION ( 'UNSPECIFIED', 'UNSPECIFIED', '' ) ;
#141 = FACE_OUTER_BOUND ( 'NONE', #61, .T. ) ;
#142 = CARTESIAN_POINT ( 'NONE',  ( 0.0000000000000000000, 25.00000000000000000, 0.0000000000000000000 ) ) ;
#143 = APPROVAL_STATUS ( 'not_yet_approved' ) ;
#144 = CALENDAR_DATE ( 2021, 6, 12 ) ;
#145 = CARTESIAN_POINT ( 'NONE',  ( -4.367456405451892646E-30, 2.407267487884797438E-31, -1.250889230557653504E-15 ) ) ;
#146 = PERSON_AND_ORGANIZATION_ROLE ( 'design_supplier' ) ;
#147 = PERSON_AND_ORGANIZATION ( #136, #140 ) ;
#148 = AXIS2_PLACEMENT_3D ( 'NONE', #15, #117, #131 ) ;
#149 = MANIFOLD_SOLID_BREP ( 'Corps-Déplacer/Copier1', #86 ) ;
#150 = CC_DESIGN_DATE_AND_TIME_ASSIGNMENT ( #79, #3, ( #49 ) ) ;
#151 = PLANE ( 'NONE',  #12 ) ;
#152 = CC_DESIGN_SECURITY_CLASSIFICATION ( #49, ( #134 ) ) ;
#153 = ADVANCED_BREP_SHAPE_REPRESENTATION ( '2957', ( #149, #98 ), #95 ) ;
#154 = ORIENTED_EDGE ( 'NONE', *, *, #139, .F. ) ;
#155 = FACE_OUTER_BOUND ( 'NONE', #19, .T. ) ;
#156 = APPROVAL_PERSON_ORGANIZATION ( #89, #59, #41 ) ;
#157 = FACE_OUTER_BOUND ( 'NONE', #64, .T. ) ;
#158 = PRODUCT_RELATED_PRODUCT_CATEGORY ( 'detail', '', ( #27 ) ) ;
#159 = DATE_AND_TIME ( #102, #109 ) ;
#160 = CARTESIAN_POINT ( 'NONE',  ( 0.0000000000000000000, 0.0000000000000000000, 0.0000000000000000000 ) ) ;
#161 = VERTEX_POINT ( 'NONE', #90 ) ;
#162 = COORDINATED_UNIVERSAL_TIME_OFFSET ( 1, 0, .AHEAD. ) ;
#163 = CARTESIAN_POINT ( 'NONE',  ( 0.0000000000000000000, 0.0000000000000000000, 0.0000000000000000000 ) ) ;
#164 = APPROVAL ( #107, 'UNSPECIFIED' ) ;
#165 = EDGE_LOOP ( 'NONE', ( #31 ) ) ;
#166 = ORIENTED_EDGE ( 'NONE', *, *, #128, .F. ) ;
#167 = APPLICATION_PROTOCOL_DEFINITION ( 'international standard', 'config_control_design', 1994, #78 ) ;
#168 = PERSON_AND_ORGANIZATION ( #136, #140 ) ;
#169 = PERSON_AND_ORGANIZATION ( #136, #140 ) ;
ENDSEC;
END-ISO-10303-21;
