ISO-10303-21;
HEADER;
FILE_DESCRIPTION (( 'STEP AP203' ),
    '1' );
FILE_NAME ('29286.step',
    '2021-10-07T13:46:34',
    ( '' ),
    ( '' ),
    'SwSTEP 2.0',
    'SolidWorks 2019',
    '' );
FILE_SCHEMA (( 'CONFIG_CONTROL_DESIGN' ));
ENDSEC;

DATA;
#1 = PERSON_AND_ORGANIZATION ( #204, #103 ) ;
#2 = CALENDAR_DATE ( 2021, 7, 10 ) ;
#3 = AXIS2_PLACEMENT_3D ( 'NONE', #111, #93, #158 ) ;
#4 = APPROVAL_DATE_TIME ( #150, #94 ) ;
#5 = FACE_OUTER_BOUND ( 'NONE', #138, .T. ) ;
#6 = CONICAL_SURFACE ( 'NONE', #113, 0.8099999999999938360, 1.029744258676649649 ) ;
#7 = DIRECTION ( 'NONE',  ( -3.491481338843133355E-15, 1.224646799147353207E-16, -1.000000000000000000 ) ) ;
#8 = UNCERTAINTY_MEASURE_WITH_UNIT (LENGTH_MEASURE( 1.000000000000000082E-05 ), #78, 'distance_accuracy_value', 'NONE');
#9 = ORIENTED_EDGE ( 'NONE', *, *, #37, .T. ) ;
#10 = LOCAL_TIME ( 15, 46, 34.00000000000000000, #84 ) ;
#11 = DIRECTION ( 'NONE',  ( 0.0000000000000000000, 1.000000000000000000, 0.0000000000000000000 ) ) ;
#12 = DIRECTION ( 'NONE',  ( -3.491481338843133355E-15, 1.224646799147353207E-16, -1.000000000000000000 ) ) ;
#13 = DIRECTION ( 'NONE',  ( -4.275831445896958607E-31, -1.000000000000000000, -1.224646799147353207E-16 ) ) ;
#14 = EDGE_CURVE ( 'NONE', #30, #30, #135, .T. ) ;
#15 = CC_DESIGN_APPROVAL ( #149, ( #27 ) ) ;
#16 = CARTESIAN_POINT ( 'NONE',  ( 4.189777606611760026E-14, -1.469576158976823947E-15, 12.00000000000000000 ) ) ;
#17 = CIRCLE ( 'NONE', #83, 0.8000000000000010436 ) ;
#18 = DIRECTION ( 'NONE',  ( 4.275831445896958607E-31, 1.000000000000000000, 1.224646799147353207E-16 ) ) ;
#19 = VERTEX_POINT ( 'NONE', #97 ) ;
#20 = ADVANCED_FACE ( 'NONE', ( #5 ), #119, .T. ) ;
#21 = APPROVAL_ROLE ( '' ) ;
#22 = CALENDAR_DATE ( 2021, 7, 10 ) ;
#23 = DATE_AND_TIME ( #22, #10 ) ;
#24 = VERTEX_POINT ( 'NONE', #146 ) ;
#25 = ADVANCED_FACE ( 'NONE', ( #179, #193 ), #101, .T. ) ;
#26 = ORIENTED_EDGE ( 'NONE', *, *, #14, .T. ) ;
#27 = SECURITY_CLASSIFICATION ( '', '', #195 ) ;
#28 = ORIENTED_EDGE ( 'NONE', *, *, #194, .T. ) ;
#29 = APPROVAL ( #213, 'UNSPECIFIED' ) ;
#30 = VERTEX_POINT ( 'NONE', #55 ) ;
#31 = CC_DESIGN_SECURITY_CLASSIFICATION ( #27, ( #145 ) ) ;
#32 = CARTESIAN_POINT ( 'NONE',  ( 4.189777606611760026E-14, 6.074027119780472542E-33, 12.00000000000000000 ) ) ;
#33 = DIRECTION ( 'NONE',  ( -4.755382578733951584E-31, -1.000000000000000000, -1.338521200599398294E-16 ) ) ;
#34 = FACE_OUTER_BOUND ( 'NONE', #122, .T. ) ;
#35 = CARTESIAN_POINT ( 'NONE',  ( 0.0000000000000000000, 0.0000000000000000000, 0.0000000000000000000 ) ) ;
#36 = PERSON_AND_ORGANIZATION_ROLE ( 'creator' ) ;
#37 = EDGE_CURVE ( 'NONE', #127, #127, #17, .T. ) ;
#38 = AXIS2_PLACEMENT_3D ( 'NONE', #191, #12, #88 ) ;
#39 = APPLICATION_PROTOCOL_DEFINITION ( 'international standard', 'config_control_design', 1994, #89 ) ;
#40 = CARTESIAN_POINT ( 'NONE',  ( 4.189777606611760026E-14, 0.8099999999999947242, 12.00000000000000000 ) ) ;
#41 = AXIS2_PLACEMENT_3D ( 'NONE', #32, #219, #13 ) ;
#42 = CARTESIAN_POINT ( 'NONE',  ( 0.0000000000000000000, 0.0000000000000000000, 0.0000000000000000000 ) ) ;
#43 = AXIS2_PLACEMENT_3D ( 'NONE', #217, #189, #140 ) ;
#44 = ORIENTED_EDGE ( 'NONE', *, *, #187, .F. ) ;
#45 = DATE_AND_TIME ( #201, #52 ) ;
#46 = ORIENTED_EDGE ( 'NONE', *, *, #117, .T. ) ;
#47 = CLOSED_SHELL ( 'NONE', ( #74, #25, #114, #141, #96 ) ) ;
#48 = PRODUCT_RELATED_PRODUCT_CATEGORY ( 'detail', '', ( #177 ) ) ;
#49 = ORIENTED_EDGE ( 'NONE', *, *, #194, .F. ) ;
#50 = DIRECTION ( 'NONE',  ( 4.755382578733951584E-31, 1.000000000000000000, 1.338521200599398294E-16 ) ) ;
#51 = DIRECTION ( 'NONE',  ( -4.275831445896958607E-31, -1.000000000000000000, -1.224646799147353207E-16 ) ) ;
#52 = LOCAL_TIME ( 15, 46, 34.00000000000000000, #87 ) ;
#53 = FACE_OUTER_BOUND ( 'NONE', #64, .T. ) ;
#54 = DIRECTION ( 'NONE',  ( 0.0000000000000000000, 1.000000000000000000, 0.0000000000000000000 ) ) ;
#55 = CARTESIAN_POINT ( 'NONE',  ( 1.699293847250178939E-15, 0.8099999999999937250, 0.4866971014123255834 ) ) ;
#56 = AXIS2_PLACEMENT_3D ( 'NONE', #143, #144, #211 ) ;
#57 = PRODUCT_DEFINITION ( 'UNKNOWN', '', #145, #210 ) ;
#58 = COORDINATED_UNIVERSAL_TIME_OFFSET ( 1, 0, .AHEAD. ) ;
#59 = APPROVAL_ROLE ( '' ) ;
#60 = APPROVAL_PERSON_ORGANIZATION ( #130, #94, #21 ) ;
#61 = PERSON_AND_ORGANIZATION_ROLE ( 'classification_officer' ) ;
#62 = APPROVAL_STATUS ( 'not_yet_approved' ) ;
#63 = CC_DESIGN_DATE_AND_TIME_ASSIGNMENT ( #112, #153, ( #27 ) ) ;
#64 = EDGE_LOOP ( 'NONE', ( #202 ) ) ;
#65 = ORIENTED_EDGE ( 'NONE', *, *, #117, .F. ) ;
#66 = ORIENTED_EDGE ( 'NONE', *, *, #14, .F. ) ;
#67 = CC_DESIGN_APPROVAL ( #29, ( #145 ) ) ;
#68 = CARTESIAN_POINT ( 'NONE',  ( 1.699293847250178545E-15, -5.960320473988991624E-17, 0.4866971014123254724 ) ) ;
#69 = CYLINDRICAL_SURFACE ( 'NONE', #172, 0.8099999999999950573 ) ;
#70 = ADVANCED_FACE ( 'NONE', ( #106 ), #6, .T. ) ;
#71 = AXIS2_PLACEMENT_3D ( 'NONE', #110, #209, #176 ) ;
#72 = FACE_OUTER_BOUND ( 'NONE', #200, .T. ) ;
#73 = DIRECTION ( 'NONE',  ( 0.0000000000000000000, 1.000000000000000000, 0.0000000000000000000 ) ) ;
#74 = ADVANCED_FACE ( 'NONE', ( #142 ), #123, .F. ) ;
#75 = ADVANCED_BREP_SHAPE_REPRESENTATION ( '29286', ( #133, #136, #100 ), #222 ) ;
#76 = FACE_BOUND ( 'NONE', #183, .T. ) ;
#77 = CIRCLE ( 'NONE', #71, 0.9999999999999978906 ) ;
#78 =( LENGTH_UNIT ( ) NAMED_UNIT ( * ) SI_UNIT ( .MILLI., .METRE. ) );
#79 = APPLICATION_PROTOCOL_DEFINITION ( 'international standard', 'config_control_design', 1994, #199 ) ;
#80 = PERSON_AND_ORGANIZATION_ROLE ( 'design_supplier' ) ;
#81 = LOCAL_TIME ( 15, 46, 34.00000000000000000, #165 ) ;
#82 = PERSON_AND_ORGANIZATION ( #204, #103 ) ;
#83 = AXIS2_PLACEMENT_3D ( 'NONE', #216, #174, #11 ) ;
#84 = COORDINATED_UNIVERSAL_TIME_OFFSET ( 1, 0, .AHEAD. ) ;
#85 = CC_DESIGN_PERSON_AND_ORGANIZATION_ASSIGNMENT ( #99, #80, ( #145 ) ) ;
#86 = EDGE_LOOP ( 'NONE', ( #44 ) ) ;
#87 = COORDINATED_UNIVERSAL_TIME_OFFSET ( 1, 0, .AHEAD. ) ;
#88 = DIRECTION ( 'NONE',  ( 4.275831445896958607E-31, 1.000000000000000000, 1.224646799147353207E-16 ) ) ;
#89 = APPLICATION_CONTEXT ( 'configuration controlled 3d designs of mechanical parts and assemblies' ) ;
#90 = DIRECTION ( 'NONE',  ( -3.491481338843133355E-15, 1.224646799147353207E-16, -1.000000000000000000 ) ) ;
#91 = DIRECTION ( 'NONE',  ( 3.491481338843133355E-15, -1.224646799147353207E-16, 1.000000000000000000 ) ) ;
#92 = AXIS2_PLACEMENT_3D ( 'NONE', #207, #90, #54 ) ;
#93 = DIRECTION ( 'NONE',  ( 3.491481338843133355E-15, -1.224646799147353207E-16, 1.000000000000000000 ) ) ;
#94 = APPROVAL ( #180, 'UNSPECIFIED' ) ;
#95 = CARTESIAN_POINT ( 'NONE',  ( 1.319779946082704535E-13, 0.9999999999999965583, 37.79999999999999716 ) ) ;
#96 = ADVANCED_FACE ( 'NONE', ( #53 ), #155, .F. ) ;
#97 = CARTESIAN_POINT ( 'NONE',  ( 4.189777606611760026E-14, 0.8099999999999947242, 12.00000000000000000 ) ) ;
#98 = PERSON_AND_ORGANIZATION ( #204, #103 ) ;
#99 = PERSON_AND_ORGANIZATION ( #204, #103 ) ;
#100 = AXIS2_PLACEMENT_3D ( 'NONE', #42, #115, #198 ) ;
#101 = CONICAL_SURFACE ( 'NONE', #3, 0.9999999999999978906, 0.5235987755982896008 ) ;
#102 = EDGE_LOOP ( 'NONE', ( #104 ) ) ;
#103 = ORGANIZATION ( 'UNSPECIFIED', 'UNSPECIFIED', '' ) ;
#104 = ORIENTED_EDGE ( 'NONE', *, *, #187, .T. ) ;
#105 = EDGE_LOOP ( 'NONE', ( #28 ) ) ;
#106 = FACE_OUTER_BOUND ( 'NONE', #188, .T. ) ;
#107 = AXIS2_PLACEMENT_3D ( 'NONE', #16, #159, #73 ) ;
#108 = DIRECTION ( 'NONE',  ( 3.491481338843133355E-15, -1.224646799147353207E-16, 1.000000000000000000 ) ) ;
#109 = DIRECTION ( 'NONE',  ( -3.491481338843133355E-15, 1.224646799147353207E-16, -1.000000000000000000 ) ) ;
#110 = CARTESIAN_POINT ( 'NONE',  ( 4.304678644990307084E-14, -1.509878018048371486E-15, 12.32908965343809626 ) ) ;
#111 = CARTESIAN_POINT ( 'NONE',  ( 4.304678644990307084E-14, -1.509878018048371486E-15, 12.32908965343809626 ) ) ;
#112 = DATE_AND_TIME ( #2, #81 ) ;
#113 = AXIS2_PLACEMENT_3D ( 'NONE', #126, #91, #33 ) ;
#114 = ADVANCED_FACE ( 'NONE', ( #192, #72 ), #125, .T. ) ;
#115 = DIRECTION ( 'NONE',  ( 0.0000000000000000000, 0.0000000000000000000, 1.000000000000000000 ) ) ;
#116 = LOCAL_TIME ( 15, 46, 34.00000000000000000, #151 ) ;
#117 = EDGE_CURVE ( 'NONE', #221, #221, #134, .T. ) ;
#118 = AXIS2_PLACEMENT_3D ( 'NONE', #68, #7, #50 ) ;
#119 = PLANE ( 'NONE',  #167 ) ;
#120 = APPROVAL_PERSON_ORGANIZATION ( #186, #149, #152 ) ;
#121 = APPROVAL_DATE_TIME ( #45, #149 ) ;
#122 = EDGE_LOOP ( 'NONE', ( #66 ) ) ;
#123 = PLANE ( 'NONE',  #41 ) ;
#124 = DIRECTION ( 'NONE',  ( -3.491481338843133355E-15, 1.224646799147353207E-16, -1.000000000000000000 ) ) ;
#125 = CYLINDRICAL_SURFACE ( 'NONE', #129, 0.9999999999999995559 ) ;
#126 = CARTESIAN_POINT ( 'NONE',  ( 1.699293847250178545E-15, -5.960320473988991624E-17, 0.4866971014123254724 ) ) ;
#127 = VERTEX_POINT ( 'NONE', #160 ) ;
#128 = CALENDAR_DATE ( 2021, 7, 10 ) ;
#129 = AXIS2_PLACEMENT_3D ( 'NONE', #35, #109, #156 ) ;
#130 = PERSON_AND_ORGANIZATION ( #204, #103 ) ;
#131 = CC_DESIGN_PERSON_AND_ORGANIZATION_ASSIGNMENT ( #82, #168, ( #177 ) ) ;
#132 =( NAMED_UNIT ( * ) SI_UNIT ( $, .STERADIAN. ) SOLID_ANGLE_UNIT ( ) );
#133 = MANIFOLD_SOLID_BREP ( 'Corps-Déplacer/Copier1[1]', #47 ) ;
#134 = CIRCLE ( 'NONE', #92, 1.000000000000001110 ) ;
#135 = CIRCLE ( 'NONE', #118, 0.8099999999999938360 ) ;
#136 = MANIFOLD_SOLID_BREP ( 'Corps-Déplacer/Copier1[2]', #178 ) ;
#137 = CC_DESIGN_DATE_AND_TIME_ASSIGNMENT ( #23, #147, ( #57 ) ) ;
#138 = EDGE_LOOP ( 'NONE', ( #215 ) ) ;
#139 = CARTESIAN_POINT ( 'NONE',  ( 0.0000000000000000000, 0.0000000000000000000, 0.0000000000000000000 ) ) ;
#140 = DIRECTION ( 'NONE',  ( 0.0000000000000000000, 1.000000000000000000, 0.0000000000000000000 ) ) ;
#141 = ADVANCED_FACE ( 'NONE', ( #206, #76 ), #166, .T. ) ;
#142 = FACE_OUTER_BOUND ( 'NONE', #105, .T. ) ;
#143 = CARTESIAN_POINT ( 'NONE',  ( 4.189777606611760026E-14, -1.469576158976823947E-15, 12.00000000000000000 ) ) ;
#144 = DIRECTION ( 'NONE',  ( -3.491481338843133355E-15, 1.224646799147353207E-16, -1.000000000000000000 ) ) ;
#145 = PRODUCT_DEFINITION_FORMATION_WITH_SPECIFIED_SOURCE ( 'ANY', '', #177, .NOT_KNOWN. ) ;
#146 = CARTESIAN_POINT ( 'NONE',  ( 4.304678644990307084E-14, 0.9999999999999963363, 12.32908965343809626 ) ) ;
#147 = DATE_TIME_ROLE ( 'creation_date' ) ;
#148 = MECHANICAL_CONTEXT ( 'NONE', #199, 'mechanical' ) ;
#149 = APPROVAL ( #62, 'UNSPECIFIED' ) ;
#150 = DATE_AND_TIME ( #181, #218 ) ;
#151 = COORDINATED_UNIVERSAL_TIME_OFFSET ( 1, 0, .AHEAD. ) ;
#152 = APPROVAL_ROLE ( '' ) ;
#153 = DATE_TIME_ROLE ( 'classification_date' ) ;
#154 = ORIENTED_EDGE ( 'NONE', *, *, #208, .T. ) ;
#155 = PLANE ( 'NONE',  #38 ) ;
#156 = DIRECTION ( 'NONE',  ( 4.275831445896958607E-31, 1.000000000000000000, 1.224646799147353207E-16 ) ) ;
#157 = CIRCLE ( 'NONE', #107, 0.8099999999999962785 ) ;
#158 = DIRECTION ( 'NONE',  ( 0.0000000000000000000, -1.000000000000000000, 0.0000000000000000000 ) ) ;
#159 = DIRECTION ( 'NONE',  ( -3.491481338843133355E-15, 1.224646799147353207E-16, -1.000000000000000000 ) ) ;
#160 = CARTESIAN_POINT ( 'NONE',  ( 1.326762908760390423E-13, 0.7999999999999963807, 38.00000000000000000 ) ) ;
#161 = DATE_AND_TIME ( #128, #116 ) ;
#162 = PERSON_AND_ORGANIZATION ( #204, #103 ) ;
#163 = PERSON_AND_ORGANIZATION_ROLE ( 'creator' ) ;
#164 = CC_DESIGN_PERSON_AND_ORGANIZATION_ASSIGNMENT ( #214, #61, ( #27 ) ) ;
#165 = COORDINATED_UNIVERSAL_TIME_OFFSET ( 1, 0, .AHEAD. ) ;
#166 = CONICAL_SURFACE ( 'NONE', #43, 0.8000000000000010436, 0.7853981633974516097 ) ;
#167 = AXIS2_PLACEMENT_3D ( 'NONE', #184, #108, #51 ) ;
#168 = PERSON_AND_ORGANIZATION_ROLE ( 'design_owner' ) ;
#169 = SHAPE_DEFINITION_REPRESENTATION ( #182, #75 ) ;
#170 = ADVANCED_FACE ( 'NONE', ( #34, #173 ), #69, .T. ) ;
#171 = EDGE_LOOP ( 'NONE', ( #154 ) ) ;
#172 = AXIS2_PLACEMENT_3D ( 'NONE', #139, #124, #18 ) ;
#173 = FACE_OUTER_BOUND ( 'NONE', #171, .T. ) ;
#174 = DIRECTION ( 'NONE',  ( -3.491481338843133355E-15, 1.224646799147353207E-16, -1.000000000000000000 ) ) ;
#175 = CIRCLE ( 'NONE', #56, 0.8099999999999962785 ) ;
#176 = DIRECTION ( 'NONE',  ( 0.0000000000000000000, 1.000000000000000000, 0.0000000000000000000 ) ) ;
#177 = PRODUCT ( '29286', '29286', '', ( #148 ) ) ;
#178 = CLOSED_SHELL ( 'NONE', ( #70, #170, #20 ) ) ;
#179 = FACE_BOUND ( 'NONE', #205, .T. ) ;
#180 = APPROVAL_STATUS ( 'not_yet_approved' ) ;
#181 = CALENDAR_DATE ( 2021, 7, 10 ) ;
#182 = PRODUCT_DEFINITION_SHAPE ( 'NONE', 'NONE',  #57 ) ;
#183 = EDGE_LOOP ( 'NONE', ( #9 ) ) ;
#184 = CARTESIAN_POINT ( 'NONE',  ( 4.189777606611760026E-14, 6.074027119780472542E-33, 12.00000000000000000 ) ) ;
#185 = APPROVAL_PERSON_ORGANIZATION ( #98, #29, #59 ) ;
#186 = PERSON_AND_ORGANIZATION ( #204, #103 ) ;
#187 = EDGE_CURVE ( 'NONE', #24, #24, #77, .T. ) ;
#188 = EDGE_LOOP ( 'NONE', ( #26 ) ) ;
#189 = DIRECTION ( 'NONE',  ( -3.491481338843133355E-15, 1.224646799147353207E-16, -1.000000000000000000 ) ) ;
#190 = CC_DESIGN_PERSON_AND_ORGANIZATION_ASSIGNMENT ( #1, #36, ( #145 ) ) ;
#191 = CARTESIAN_POINT ( 'NONE',  ( 1.326762908760390423E-13, 5.999039130647368167E-33, 38.00000000000000000 ) ) ;
#192 = FACE_OUTER_BOUND ( 'NONE', #86, .T. ) ;
#193 = FACE_OUTER_BOUND ( 'NONE', #102, .T. ) ;
#194 = EDGE_CURVE ( 'NONE', #19, #19, #157, .T. ) ;
#195 = SECURITY_CLASSIFICATION_LEVEL ( 'unclassified' ) ;
#196 = VERTEX_POINT ( 'NONE', #40 ) ;
#197 = CC_DESIGN_APPROVAL ( #94, ( #57 ) ) ;
#198 = DIRECTION ( 'NONE',  ( 1.000000000000000000, 0.0000000000000000000, 0.0000000000000000000 ) ) ;
#199 = APPLICATION_CONTEXT ( 'configuration controlled 3d designs of mechanical parts and assemblies' ) ;
#200 = EDGE_LOOP ( 'NONE', ( #46 ) ) ;
#201 = CALENDAR_DATE ( 2021, 7, 10 ) ;
#202 = ORIENTED_EDGE ( 'NONE', *, *, #37, .F. ) ;
#203 = EDGE_LOOP ( 'NONE', ( #65 ) ) ;
#204 = PERSON ( 'UNSPECIFIED', 'UNSPECIFIED', 'UNSPECIFIED', ('UNSPECIFIED'), ('UNSPECIFIED'), ('UNSPECIFIED') ) ;
#205 = EDGE_LOOP ( 'NONE', ( #49 ) ) ;
#206 = FACE_OUTER_BOUND ( 'NONE', #203, .T. ) ;
#207 = CARTESIAN_POINT ( 'NONE',  ( 1.319779946082704535E-13, -4.629164900776995227E-15, 37.79999999999999716 ) ) ;
#208 = EDGE_CURVE ( 'NONE', #196, #196, #175, .T. ) ;
#209 = DIRECTION ( 'NONE',  ( -3.491481338843133355E-15, 1.224646799147353207E-16, -1.000000000000000000 ) ) ;
#210 = DESIGN_CONTEXT ( 'detailed design', #89, 'design' ) ;
#211 = DIRECTION ( 'NONE',  ( 0.0000000000000000000, 1.000000000000000000, 0.0000000000000000000 ) ) ;
#212 =( NAMED_UNIT ( * ) PLANE_ANGLE_UNIT ( ) SI_UNIT ( $, .RADIAN. ) );
#213 = APPROVAL_STATUS ( 'not_yet_approved' ) ;
#214 = PERSON_AND_ORGANIZATION ( #204, #103 ) ;
#215 = ORIENTED_EDGE ( 'NONE', *, *, #208, .F. ) ;
#216 = CARTESIAN_POINT ( 'NONE',  ( 1.326762908760390423E-13, -4.653657836759941941E-15, 38.00000000000000000 ) ) ;
#217 = CARTESIAN_POINT ( 'NONE',  ( 1.326762908760390423E-13, -4.653657836759941941E-15, 38.00000000000000000 ) ) ;
#218 = LOCAL_TIME ( 15, 46, 34.00000000000000000, #58 ) ;
#219 = DIRECTION ( 'NONE',  ( 3.491481338843133355E-15, -1.224646799147353207E-16, 1.000000000000000000 ) ) ;
#220 = CC_DESIGN_PERSON_AND_ORGANIZATION_ASSIGNMENT ( #162, #163, ( #57 ) ) ;
#221 = VERTEX_POINT ( 'NONE', #95 ) ;
#222 =( GEOMETRIC_REPRESENTATION_CONTEXT ( 3 ) GLOBAL_UNCERTAINTY_ASSIGNED_CONTEXT ( ( #8 ) ) GLOBAL_UNIT_ASSIGNED_CONTEXT ( ( #78, #212, #132 ) ) REPRESENTATION_CONTEXT ( 'NONE', 'WORKASPACE' ) );
#223 = APPROVAL_DATE_TIME ( #161, #29 ) ;
ENDSEC;
END-ISO-10303-21;
