ISO-10303-21;
HEADER;
FILE_DESCRIPTION (( 'STEP AP203' ),
    '1' );
FILE_NAME ('2924.step',
    '2021-12-06T12:58:38',
    ( '' ),
    ( '' ),
    'SwSTEP 2.0',
    'SolidWorks 2019',
    '' );
FILE_SCHEMA (( 'CONFIG_CONTROL_DESIGN' ));
ENDSEC;

DATA;
#1 = FACE_OUTER_BOUND ( 'NONE', #50, .T. ) ;
#2 = EDGE_CURVE ( 'NONE', #141, #141, #32, .T. ) ;
#3 = APPROVAL_DATE_TIME ( #98, #77 ) ;
#4 = CALENDAR_DATE ( 2021, 6, 12 ) ;
#5 = UNCERTAINTY_MEASURE_WITH_UNIT (LENGTH_MEASURE( 1.000000000000000082E-05 ), #55, 'distance_accuracy_value', 'NONE');
#6 = LOCAL_TIME ( 13, 58, 38.00000000000000000, #49 ) ;
#7 = APPLICATION_CONTEXT ( 'configuration controlled 3d designs of mechanical parts and assemblies' ) ;
#8 = DIRECTION ( 'NONE',  ( -3.491481338843133355E-15, 8.980743193747252580E-17, -1.000000000000000000 ) ) ;
#9 = DIRECTION ( 'NONE',  ( -3.491481338843133355E-15, 8.980743193747252580E-17, -1.000000000000000000 ) ) ;
#10 = DIRECTION ( 'NONE',  ( 3.491481338843133355E-15, -8.980743193747252580E-17, 1.000000000000000000 ) ) ;
#11 = DATE_TIME_ROLE ( 'classification_date' ) ;
#12 = DATE_TIME_ROLE ( 'creation_date' ) ;
#13 = ORIENTED_EDGE ( 'NONE', *, *, #110, .T. ) ;
#14 =( GEOMETRIC_REPRESENTATION_CONTEXT ( 3 ) GLOBAL_UNCERTAINTY_ASSIGNED_CONTEXT ( ( #5 ) ) GLOBAL_UNIT_ASSIGNED_CONTEXT ( ( #55, #58, #106 ) ) REPRESENTATION_CONTEXT ( 'NONE', 'WORKASPACE' ) );
#15 = DATE_AND_TIME ( #125, #34 ) ;
#16 = EDGE_LOOP ( 'NONE', ( #13 ) ) ;
#17 = APPROVAL_STATUS ( 'not_yet_approved' ) ;
#18 = CIRCLE ( 'NONE', #52, 15.00000000000000000 ) ;
#19 = COORDINATED_UNIVERSAL_TIME_OFFSET ( 1, 0, .AHEAD. ) ;
#20 = CC_DESIGN_PERSON_AND_ORGANIZATION_ASSIGNMENT ( #90, #26, ( #27 ) ) ;
#21 = PLANE ( 'NONE',  #78 ) ;
#22 = DIRECTION ( 'NONE',  ( 3.135609726991101051E-31, 1.000000000000000000, 8.980743193747252580E-17 ) ) ;
#23 = DIRECTION ( 'NONE',  ( 3.135609726991101489E-31, 1.000000000000000000, 8.980743193747252580E-17 ) ) ;
#24 = CALENDAR_DATE ( 2021, 6, 12 ) ;
#25 = ORIENTED_EDGE ( 'NONE', *, *, #2, .T. ) ;
#26 = PERSON_AND_ORGANIZATION_ROLE ( 'creator' ) ;
#27 = PRODUCT_DEFINITION ( 'UNKNOWN', '', #119, #91 ) ;
#28 = APPROVAL_PERSON_ORGANIZATION ( #143, #160, #51 ) ;
#29 = CC_DESIGN_SECURITY_CLASSIFICATION ( #161, ( #119 ) ) ;
#30 = FACE_OUTER_BOUND ( 'NONE', #47, .T. ) ;
#31 = CARTESIAN_POINT ( 'NONE',  ( -1.254243890796440421E-30, 3.226149932481504003E-32, -3.592297277498901032E-16 ) ) ;
#32 = CIRCLE ( 'NONE', #43, 15.00000000000000000 ) ;
#33 = CARTESIAN_POINT ( 'NONE',  ( 0.0000000000000000000, 0.0000000000000000000, 0.0000000000000000000 ) ) ;
#34 = LOCAL_TIME ( 13, 58, 38.00000000000000000, #75 ) ;
#35 = PERSON_AND_ORGANIZATION ( #92, #117 ) ;
#36 = ORIENTED_EDGE ( 'NONE', *, *, #110, .F. ) ;
#37 = DIRECTION ( 'NONE',  ( -3.491481338843133355E-15, 8.980743193747252580E-17, -1.000000000000000000 ) ) ;
#38 = COORDINATED_UNIVERSAL_TIME_OFFSET ( 1, 0, .AHEAD. ) ;
#39 = PERSON_AND_ORGANIZATION ( #92, #117 ) ;
#40 = APPROVAL ( #17, 'UNSPECIFIED' ) ;
#41 = CC_DESIGN_PERSON_AND_ORGANIZATION_ASSIGNMENT ( #153, #155, ( #161 ) ) ;
#42 = CC_DESIGN_APPROVAL ( #77, ( #119 ) ) ;
#43 = AXIS2_PLACEMENT_3D ( 'NONE', #63, #37, #134 ) ;
#44 = CARTESIAN_POINT ( 'NONE',  ( 5.237222008264695300E-15, -1.347111479062086778E-16, 1.499999999999998668 ) ) ;
#45 = DIRECTION ( 'NONE',  ( 3.135609726991101489E-31, 1.000000000000000000, 8.980743193747252580E-17 ) ) ;
#46 = FACE_OUTER_BOUND ( 'NONE', #112, .T. ) ;
#47 = EDGE_LOOP ( 'NONE', ( #36 ) ) ;
#48 = AXIS2_PLACEMENT_3D ( 'NONE', #165, #82, #93 ) ;
#49 = COORDINATED_UNIVERSAL_TIME_OFFSET ( 1, 0, .AHEAD. ) ;
#50 = EDGE_LOOP ( 'NONE', ( #144 ) ) ;
#51 = APPROVAL_ROLE ( '' ) ;
#52 = AXIS2_PLACEMENT_3D ( 'NONE', #44, #95, #67 ) ;
#53 = CARTESIAN_POINT ( 'NONE',  ( 0.0000000000000000000, 15.00000000000000000, 0.0000000000000000000 ) ) ;
#54 = CARTESIAN_POINT ( 'NONE',  ( 5.237222008264700822E-15, 4.000000000000000000, 1.500000000000000222 ) ) ;
#55 =( LENGTH_UNIT ( ) NAMED_UNIT ( * ) SI_UNIT ( .MILLI., .METRE. ) );
#56 = CC_DESIGN_APPROVAL ( #40, ( #27 ) ) ;
#57 = CARTESIAN_POINT ( 'NONE',  ( 0.0000000000000000000, 0.0000000000000000000, 0.0000000000000000000 ) ) ;
#58 =( NAMED_UNIT ( * ) PLANE_ANGLE_UNIT ( ) SI_UNIT ( $, .RADIAN. ) );
#59 = FACE_OUTER_BOUND ( 'NONE', #115, .T. ) ;
#60 = DATE_AND_TIME ( #4, #71 ) ;
#61 = EDGE_LOOP ( 'NONE', ( #157 ) ) ;
#62 = APPROVAL_ROLE ( '' ) ;
#63 = CARTESIAN_POINT ( 'NONE',  ( -4.703414590486651840E-30, 1.209806224680564042E-31, -1.347111479062087813E-15 ) ) ;
#64 = PERSON_AND_ORGANIZATION_ROLE ( 'creator' ) ;
#65 = AXIS2_PLACEMENT_3D ( 'NONE', #57, #69, #22 ) ;
#66 = ADVANCED_BREP_SHAPE_REPRESENTATION ( '2924', ( #74, #48 ), #14 ) ;
#67 = DIRECTION ( 'NONE',  ( 3.081487911019577365E-31, 1.000000000000000000, 8.673617379884035472E-17 ) ) ;
#68 = CARTESIAN_POINT ( 'NONE',  ( 1.710569414459005214E-46, 4.000000000000000000, 0.0000000000000000000 ) ) ;
#69 = DIRECTION ( 'NONE',  ( -3.491481338843133355E-15, 8.980743193747252580E-17, -1.000000000000000000 ) ) ;
#70 = CC_DESIGN_DATE_AND_TIME_ASSIGNMENT ( #60, #12, ( #27 ) ) ;
#71 = LOCAL_TIME ( 13, 58, 38.00000000000000000, #38 ) ;
#72 = PERSON_AND_ORGANIZATION ( #92, #117 ) ;
#73 = CYLINDRICAL_SURFACE ( 'NONE', #65, 15.00000000000000000 ) ;
#74 = MANIFOLD_SOLID_BREP ( 'Corps-Déplacer/Copier1', #148 ) ;
#75 = COORDINATED_UNIVERSAL_TIME_OFFSET ( 1, 0, .AHEAD. ) ;
#76 = SECURITY_CLASSIFICATION_LEVEL ( 'unclassified' ) ;
#77 = APPROVAL ( #130, 'UNSPECIFIED' ) ;
#78 = AXIS2_PLACEMENT_3D ( 'NONE', #121, #9, #45 ) ;
#79 = CC_DESIGN_APPROVAL ( #160, ( #161 ) ) ;
#80 = VERTEX_POINT ( 'NONE', #107 ) ;
#81 = DIRECTION ( 'NONE',  ( -3.491481338843133355E-15, 8.980743193747252580E-17, -1.000000000000000000 ) ) ;
#82 = DIRECTION ( 'NONE',  ( 0.0000000000000000000, 0.0000000000000000000, 1.000000000000000000 ) ) ;
#83 = APPLICATION_CONTEXT ( 'configuration controlled 3d designs of mechanical parts and assemblies' ) ;
#84 = FACE_BOUND ( 'NONE', #16, .T. ) ;
#85 = SHAPE_DEFINITION_REPRESENTATION ( #111, #66 ) ;
#86 = ORIENTED_EDGE ( 'NONE', *, *, #147, .T. ) ;
#87 = ADVANCED_FACE ( 'NONE', ( #59, #1 ), #73, .T. ) ;
#88 = APPROVAL_DATE_TIME ( #159, #160 ) ;
#89 = CALENDAR_DATE ( 2021, 6, 12 ) ;
#90 = PERSON_AND_ORGANIZATION ( #92, #117 ) ;
#91 = DESIGN_CONTEXT ( 'detailed design', #83, 'design' ) ;
#92 = PERSON ( 'UNSPECIFIED', 'UNSPECIFIED', 'UNSPECIFIED', ('UNSPECIFIED'), ('UNSPECIFIED'), ('UNSPECIFIED') ) ;
#93 = DIRECTION ( 'NONE',  ( 1.000000000000000000, 0.0000000000000000000, 0.0000000000000000000 ) ) ;
#94 = CC_DESIGN_PERSON_AND_ORGANIZATION_ASSIGNMENT ( #72, #142, ( #128 ) ) ;
#95 = DIRECTION ( 'NONE',  ( -3.491481338843133355E-15, 8.980743193747252580E-17, -1.000000000000000000 ) ) ;
#96 = FACE_OUTER_BOUND ( 'NONE', #61, .T. ) ;
#97 = PERSON_AND_ORGANIZATION_ROLE ( 'design_supplier' ) ;
#98 = DATE_AND_TIME ( #89, #6 ) ;
#99 = APPROVAL_DATE_TIME ( #15, #40 ) ;
#100 = EDGE_LOOP ( 'NONE', ( #127 ) ) ;
#101 = APPLICATION_PROTOCOL_DEFINITION ( 'international standard', 'config_control_design', 1994, #83 ) ;
#102 = CC_DESIGN_PERSON_AND_ORGANIZATION_ASSIGNMENT ( #114, #97, ( #119 ) ) ;
#103 = ORIENTED_EDGE ( 'NONE', *, *, #147, .F. ) ;
#104 = ADVANCED_FACE ( 'NONE', ( #84, #46 ), #168, .T. ) ;
#105 = AXIS2_PLACEMENT_3D ( 'NONE', #122, #10, #136 ) ;
#106 =( NAMED_UNIT ( * ) SI_UNIT ( $, .STERADIAN. ) SOLID_ANGLE_UNIT ( ) );
#107 = CARTESIAN_POINT ( 'NONE',  ( 5.237222008264700033E-15, 15.00000000000000000, 1.500000000000000000 ) ) ;
#108 = APPROVAL_PERSON_ORGANIZATION ( #35, #77, #156 ) ;
#109 = FACE_OUTER_BOUND ( 'NONE', #154, .T. ) ;
#110 = EDGE_CURVE ( 'NONE', #124, #124, #140, .T. ) ;
#111 = PRODUCT_DEFINITION_SHAPE ( 'NONE', 'NONE',  #27 ) ;
#112 = EDGE_LOOP ( 'NONE', ( #103 ) ) ;
#113 = EDGE_CURVE ( 'NONE', #137, #137, #152, .T. ) ;
#114 = PERSON_AND_ORGANIZATION ( #92, #117 ) ;
#115 = EDGE_LOOP ( 'NONE', ( #86 ) ) ;
#116 = CALENDAR_DATE ( 2021, 6, 12 ) ;
#117 = ORGANIZATION ( 'UNSPECIFIED', 'UNSPECIFIED', '' ) ;
#118 = APPROVAL_PERSON_ORGANIZATION ( #39, #40, #62 ) ;
#119 = PRODUCT_DEFINITION_FORMATION_WITH_SPECIFIED_SOURCE ( 'ANY', '', #128, .NOT_KNOWN. ) ;
#120 = DIRECTION ( 'NONE',  ( 3.135609726991101489E-31, 1.000000000000000000, 8.980743193747252580E-17 ) ) ;
#121 = CARTESIAN_POINT ( 'NONE',  ( -1.724585349845105534E-30, 4.000000000000000000, -4.939408756560989042E-16 ) ) ;
#122 = CARTESIAN_POINT ( 'NONE',  ( 5.237222008264698455E-15, 4.000000000000000000, 1.499999999999999556 ) ) ;
#123 = CARTESIAN_POINT ( 'NONE',  ( 5.237222008264699244E-15, -1.347111479062087764E-16, 1.499999999999999778 ) ) ;
#124 = VERTEX_POINT ( 'NONE', #54 ) ;
#125 = CALENDAR_DATE ( 2021, 6, 12 ) ;
#126 = APPROVAL_STATUS ( 'not_yet_approved' ) ;
#127 = ORIENTED_EDGE ( 'NONE', *, *, #113, .F. ) ;
#128 = PRODUCT ( '2924', '2924', '', ( #138 ) ) ;
#129 = COORDINATED_UNIVERSAL_TIME_OFFSET ( 1, 0, .AHEAD. ) ;
#130 = APPROVAL_STATUS ( 'not_yet_approved' ) ;
#131 = AXIS2_PLACEMENT_3D ( 'NONE', #31, #81, #23 ) ;
#132 = ADVANCED_FACE ( 'NONE', ( #109, #169 ), #21, .T. ) ;
#133 = CC_DESIGN_PERSON_AND_ORGANIZATION_ASSIGNMENT ( #145, #64, ( #119 ) ) ;
#134 = DIRECTION ( 'NONE',  ( 3.135609726991101051E-31, 1.000000000000000000, 8.980743193747252580E-17 ) ) ;
#135 = PRODUCT_RELATED_PRODUCT_CATEGORY ( 'detail', '', ( #128 ) ) ;
#136 = DIRECTION ( 'NONE',  ( -3.135609726991101489E-31, -1.000000000000000000, -8.980743193747252580E-17 ) ) ;
#137 = VERTEX_POINT ( 'NONE', #68 ) ;
#138 = MECHANICAL_CONTEXT ( 'NONE', #7, 'mechanical' ) ;
#139 = LOCAL_TIME ( 13, 58, 38.00000000000000000, #19 ) ;
#140 = CIRCLE ( 'NONE', #163, 4.000000000000000000 ) ;
#141 = VERTEX_POINT ( 'NONE', #53 ) ;
#142 = PERSON_AND_ORGANIZATION_ROLE ( 'design_owner' ) ;
#143 = PERSON_AND_ORGANIZATION ( #92, #117 ) ;
#144 = ORIENTED_EDGE ( 'NONE', *, *, #2, .F. ) ;
#145 = PERSON_AND_ORGANIZATION ( #92, #117 ) ;
#146 = DATE_AND_TIME ( #24, #139 ) ;
#147 = EDGE_CURVE ( 'NONE', #80, #80, #18, .T. ) ;
#148 = CLOSED_SHELL ( 'NONE', ( #132, #87, #104, #164 ) ) ;
#149 = DIRECTION ( 'NONE',  ( -3.491481338843133355E-15, 8.980743193747252580E-17, -1.000000000000000000 ) ) ;
#150 = APPLICATION_PROTOCOL_DEFINITION ( 'international standard', 'config_control_design', 1994, #7 ) ;
#151 = CYLINDRICAL_SURFACE ( 'NONE', #162, 4.000000000000000000 ) ;
#152 = CIRCLE ( 'NONE', #131, 4.000000000000000000 ) ;
#153 = PERSON_AND_ORGANIZATION ( #92, #117 ) ;
#154 = EDGE_LOOP ( 'NONE', ( #25 ) ) ;
#155 = PERSON_AND_ORGANIZATION_ROLE ( 'classification_officer' ) ;
#156 = APPROVAL_ROLE ( '' ) ;
#157 = ORIENTED_EDGE ( 'NONE', *, *, #113, .T. ) ;
#158 = LOCAL_TIME ( 13, 58, 38.00000000000000000, #129 ) ;
#159 = DATE_AND_TIME ( #116, #158 ) ;
#160 = APPROVAL ( #126, 'UNSPECIFIED' ) ;
#161 = SECURITY_CLASSIFICATION ( '', '', #76 ) ;
#162 = AXIS2_PLACEMENT_3D ( 'NONE', #33, #8, #120 ) ;
#163 = AXIS2_PLACEMENT_3D ( 'NONE', #123, #149, #166 ) ;
#164 = ADVANCED_FACE ( 'NONE', ( #96, #30 ), #151, .F. ) ;
#165 = CARTESIAN_POINT ( 'NONE',  ( 0.0000000000000000000, 0.0000000000000000000, 0.0000000000000000000 ) ) ;
#166 = DIRECTION ( 'NONE',  ( 3.851859888774471706E-31, 1.000000000000000000, 1.084202172485504434E-16 ) ) ;
#167 = CC_DESIGN_DATE_AND_TIME_ASSIGNMENT ( #146, #11, ( #161 ) ) ;
#168 = PLANE ( 'NONE',  #105 ) ;
#169 = FACE_BOUND ( 'NONE', #100, .T. ) ;
ENDSEC;
END-ISO-10303-21;
