ISO-10303-21;
HEADER;
FILE_DESCRIPTION (( 'STEP AP203' ),
    '1' );
FILE_NAME ('29136.step',
    '2021-10-15T13:34:19',
    ( '' ),
    ( '' ),
    'SwSTEP 2.0',
    'SolidWorks 2019',
    '' );
FILE_SCHEMA (( 'CONFIG_CONTROL_DESIGN' ));
ENDSEC;

DATA;
#1 = DIRECTION ( 'NONE',  ( -3.491481338843133355E-15, 1.224646799147353207E-16, -1.000000000000000000 ) ) ;
#2 = CARTESIAN_POINT ( 'NONE',  ( 8.895566965843766473E-15, -3.120144876653155118E-16, 2.547791639863445923 ) ) ;
#3 = CYLINDRICAL_SURFACE ( 'NONE', #106, 6.999999999999991118 ) ;
#4 = AXIS2_PLACEMENT_3D ( 'NONE', #64, #6, #111 ) ;
#5 = AXIS2_PLACEMENT_3D ( 'NONE', #108, #191, #164 ) ;
#6 = DIRECTION ( 'NONE',  ( -3.491481338843133355E-15, 1.224646799147353207E-16, -1.000000000000000000 ) ) ;
#7 = PERSON_AND_ORGANIZATION_ROLE ( 'design_owner' ) ;
#8 = CALENDAR_DATE ( 2021, 15, 10 ) ;
#9 = AXIS2_PLACEMENT_3D ( 'NONE', #95, #1, #45 ) ;
#10 = ORIENTED_EDGE ( 'NONE', *, *, #105, .T. ) ;
#11 = ORIENTED_EDGE ( 'NONE', *, *, #180, .F. ) ;
#12 = DIRECTION ( 'NONE',  ( -4.402125587170832814E-31, -1.000000000000000000, -1.239088197126293036E-16 ) ) ;
#13 =( LENGTH_UNIT ( ) NAMED_UNIT ( * ) SI_UNIT ( .MILLI., .METRE. ) );
#14 = ADVANCED_FACE ( 'NONE', ( #26 ), #135, .T. ) ;
#15 = PRODUCT ( '29136', '29136', '', ( #81 ) ) ;
#16 = DIRECTION ( 'NONE',  ( 0.0000000000000000000, 1.000000000000000000, 0.0000000000000000000 ) ) ;
#17 = FACE_OUTER_BOUND ( 'NONE', #29, .T. ) ;
#18 = LOCAL_TIME ( 15, 34, 19.00000000000000000, #84 ) ;
#19 = AXIS2_PLACEMENT_3D ( 'NONE', #128, #76, #193 ) ;
#20 = APPLICATION_CONTEXT ( 'configuration controlled 3d designs of mechanical parts and assemblies' ) ;
#21 = APPROVAL_DATE_TIME ( #179, #120 ) ;
#22 = PERSON_AND_ORGANIZATION ( #28, #52 ) ;
#23 = ADVANCED_FACE ( 'NONE', ( #72 ), #90, .F. ) ;
#24 = CALENDAR_DATE ( 2021, 15, 10 ) ;
#25 = CC_DESIGN_DATE_AND_TIME_ASSIGNMENT ( #147, #103, ( #98 ) ) ;
#26 = FACE_OUTER_BOUND ( 'NONE', #56, .T. ) ;
#27 = ORIENTED_EDGE ( 'NONE', *, *, #168, .F. ) ;
#28 = PERSON ( 'UNSPECIFIED', 'UNSPECIFIED', 'UNSPECIFIED', ('UNSPECIFIED'), ('UNSPECIFIED'), ('UNSPECIFIED') ) ;
#29 = EDGE_LOOP ( 'NONE', ( #173 ) ) ;
#30 = AXIS2_PLACEMENT_3D ( 'NONE', #122, #186, #40 ) ;
#31 = ORIENTED_EDGE ( 'NONE', *, *, #78, .F. ) ;
#32 = DIRECTION ( 'NONE',  ( 4.275831445896958607E-31, 1.000000000000000000, 1.224646799147353207E-16 ) ) ;
#33 = FACE_OUTER_BOUND ( 'NONE', #171, .T. ) ;
#34 = CIRCLE ( 'NONE', #19, 6.999999999999994671 ) ;
#35 = APPLICATION_PROTOCOL_DEFINITION ( 'international standard', 'config_control_design', 1994, #118 ) ;
#36 = CALENDAR_DATE ( 2021, 15, 10 ) ;
#37 = SHAPE_DEFINITION_REPRESENTATION ( #165, #51 ) ;
#38 = CC_DESIGN_PERSON_AND_ORGANIZATION_ASSIGNMENT ( #132, #46, ( #201 ) ) ;
#39 = DIRECTION ( 'NONE',  ( 3.491481338843133355E-15, -1.224646799147353207E-16, 1.000000000000000000 ) ) ;
#40 = DIRECTION ( 'NONE',  ( -4.275831445896958607E-31, -1.000000000000000000, -1.224646799147353207E-16 ) ) ;
#41 = CIRCLE ( 'NONE', #187, 6.999999999999987566 ) ;
#42 = DIRECTION ( 'NONE',  ( 0.0000000000000000000, 1.000000000000000000, 0.0000000000000000000 ) ) ;
#43 = DIRECTION ( 'NONE',  ( 3.491481338843133355E-15, -1.224646799147353207E-16, 1.000000000000000000 ) ) ;
#44 = FACE_OUTER_BOUND ( 'NONE', #155, .T. ) ;
#45 = DIRECTION ( 'NONE',  ( 4.275831445896958607E-31, 1.000000000000000000, 1.224646799147353207E-16 ) ) ;
#46 = PERSON_AND_ORGANIZATION_ROLE ( 'design_supplier' ) ;
#47 = AXIS2_PLACEMENT_3D ( 'NONE', #93, #138, #16 ) ;
#48 = COORDINATED_UNIVERSAL_TIME_OFFSET ( 1, 0, .AHEAD. ) ;
#49 = ADVANCED_FACE ( 'NONE', ( #123, #79 ), #114, .T. ) ;
#50 = DIRECTION ( 'NONE',  ( 1.000000000000000000, 0.0000000000000000000, 0.0000000000000000000 ) ) ;
#51 = ADVANCED_BREP_SHAPE_REPRESENTATION ( '29136', ( #87, #161, #99 ), #143 ) ;
#52 = ORGANIZATION ( 'UNSPECIFIED', 'UNSPECIFIED', '' ) ;
#53 = APPROVAL_STATUS ( 'not_yet_approved' ) ;
#54 = AXIS2_PLACEMENT_3D ( 'NONE', #2, #43, #12 ) ;
#55 = CC_DESIGN_PERSON_AND_ORGANIZATION_ASSIGNMENT ( #116, #7, ( #15 ) ) ;
#56 = EDGE_LOOP ( 'NONE', ( #170 ) ) ;
#57 = ADVANCED_FACE ( 'NONE', ( #44, #159 ), #190, .T. ) ;
#58 = DIRECTION ( 'NONE',  ( -4.275831445896958607E-31, -1.000000000000000000, -1.224646799147353207E-16 ) ) ;
#59 = LOCAL_TIME ( 15, 34, 19.00000000000000000, #151 ) ;
#60 = PLANE ( 'NONE',  #9 ) ;
#61 = AXIS2_PLACEMENT_3D ( 'NONE', #184, #39, #58 ) ;
#62 = CARTESIAN_POINT ( 'NONE',  ( 1.885399922975292012E-13, 6.999999999999987566, 54.00000000000000000 ) ) ;
#63 =( NAMED_UNIT ( * ) PLANE_ANGLE_UNIT ( ) SI_UNIT ( $, .RADIAN. ) );
#64 = CARTESIAN_POINT ( 'NONE',  ( 3.735885032562152816E-13, -1.310372075087667979E-14, 107.0000000000000000 ) ) ;
#65 = CC_DESIGN_APPROVAL ( #137, ( #74 ) ) ;
#66 = VERTEX_POINT ( 'NONE', #192 ) ;
#67 = PERSON_AND_ORGANIZATION ( #28, #52 ) ;
#68 = PERSON_AND_ORGANIZATION_ROLE ( 'creator' ) ;
#69 = COORDINATED_UNIVERSAL_TIME_OFFSET ( 1, 0, .AHEAD. ) ;
#70 = CC_DESIGN_DATE_AND_TIME_ASSIGNMENT ( #86, #117, ( #74 ) ) ;
#71 = CLOSED_SHELL ( 'NONE', ( #141, #156, #14 ) ) ;
#72 = FACE_OUTER_BOUND ( 'NONE', #183, .T. ) ;
#73 = CARTESIAN_POINT ( 'NONE',  ( 8.895566965843766473E-15, -3.120144876653155118E-16, 2.547791639863445923 ) ) ;
#74 = PRODUCT_DEFINITION ( 'UNKNOWN', '', #201, #129 ) ;
#75 = CIRCLE ( 'NONE', #189, 7.000000000000000888 ) ;
#76 = DIRECTION ( 'NONE',  ( -3.491481338843133355E-15, 1.224646799147353207E-16, -1.000000000000000000 ) ) ;
#77 = FACE_OUTER_BOUND ( 'NONE', #185, .T. ) ;
#78 = EDGE_CURVE ( 'NONE', #66, #66, #75, .T. ) ;
#79 = FACE_BOUND ( 'NONE', #92, .T. ) ;
#80 = AXIS2_PLACEMENT_3D ( 'NONE', #96, #194, #42 ) ;
#81 = MECHANICAL_CONTEXT ( 'NONE', #118, 'mechanical' ) ;
#82 = UNCERTAINTY_MEASURE_WITH_UNIT (LENGTH_MEASURE( 1.000000000000000082E-05 ), #13, 'distance_accuracy_value', 'NONE');
#83 = ADVANCED_FACE ( 'NONE', ( #33 ), #60, .F. ) ;
#84 = COORDINATED_UNIVERSAL_TIME_OFFSET ( 1, 0, .AHEAD. ) ;
#85 = APPROVAL_DATE_TIME ( #166, #137 ) ;
#86 = DATE_AND_TIME ( #24, #172 ) ;
#87 = MANIFOLD_SOLID_BREP ( 'Corps-Déplacer/Copier1[1]', #163 ) ;
#88 = CC_DESIGN_SECURITY_CLASSIFICATION ( #98, ( #201 ) ) ;
#89 = CONICAL_SURFACE ( 'NONE', #54, 6.999999999999987566, 1.221730476396026388 ) ;
#90 = PLANE ( 'NONE',  #61 ) ;
#91 = ORIENTED_EDGE ( 'NONE', *, *, #78, .T. ) ;
#92 = EDGE_LOOP ( 'NONE', ( #136 ) ) ;
#93 = CARTESIAN_POINT ( 'NONE',  ( 3.735885032562152816E-13, -1.310372075087667979E-14, 107.0000000000000000 ) ) ;
#94 = CARTESIAN_POINT ( 'NONE',  ( 3.735885032562152816E-13, 5.999999999999987566, 107.0000000000000000 ) ) ;
#95 = CARTESIAN_POINT ( 'NONE',  ( 3.735885032562152816E-13, 4.499279347985554213E-32, 107.0000000000000000 ) ) ;
#96 = CARTESIAN_POINT ( 'NONE',  ( 1.885399922975292012E-13, -6.613092715395707467E-15, 54.00000000000000000 ) ) ;
#97 = DIRECTION ( 'NONE',  ( -3.491481338843133355E-15, 1.224646799147353207E-16, -1.000000000000000000 ) ) ;
#98 = SECURITY_CLASSIFICATION ( '', '', #115 ) ;
#99 = AXIS2_PLACEMENT_3D ( 'NONE', #198, #148, #50 ) ;
#100 = PERSON_AND_ORGANIZATION ( #28, #52 ) ;
#101 = APPROVAL_DATE_TIME ( #102, #188 ) ;
#102 = DATE_AND_TIME ( #133, #18 ) ;
#103 = DATE_TIME_ROLE ( 'classification_date' ) ;
#104 = APPROVAL_ROLE ( '' ) ;
#105 = EDGE_CURVE ( 'NONE', #177, #177, #134, .T. ) ;
#106 = AXIS2_PLACEMENT_3D ( 'NONE', #127, #160, #32 ) ;
#107 = PRODUCT_RELATED_PRODUCT_CATEGORY ( 'detail', '', ( #15 ) ) ;
#108 = CARTESIAN_POINT ( 'NONE',  ( 0.0000000000000000000, 0.0000000000000000000, 0.0000000000000000000 ) ) ;
#109 =( NAMED_UNIT ( * ) SI_UNIT ( $, .STERADIAN. ) SOLID_ANGLE_UNIT ( ) );
#110 = DIRECTION ( 'NONE',  ( -3.491481338843133355E-15, 1.224646799147353207E-16, -1.000000000000000000 ) ) ;
#111 = DIRECTION ( 'NONE',  ( 0.0000000000000000000, 1.000000000000000000, 0.0000000000000000000 ) ) ;
#112 = CC_DESIGN_PERSON_AND_ORGANIZATION_ASSIGNMENT ( #67, #197, ( #201 ) ) ;
#113 = APPROVAL_ROLE ( '' ) ;
#114 = CONICAL_SURFACE ( 'NONE', #47, 6.000000000000000888, 0.7853981633974479459 ) ;
#115 = SECURITY_CLASSIFICATION_LEVEL ( 'unclassified' ) ;
#116 = PERSON_AND_ORGANIZATION ( #28, #52 ) ;
#117 = DATE_TIME_ROLE ( 'creation_date' ) ;
#118 = APPLICATION_CONTEXT ( 'configuration controlled 3d designs of mechanical parts and assemblies' ) ;
#119 = APPROVAL_ROLE ( '' ) ;
#120 = APPROVAL ( #131, 'UNSPECIFIED' ) ;
#121 = EDGE_LOOP ( 'NONE', ( #91 ) ) ;
#122 = CARTESIAN_POINT ( 'NONE',  ( 1.885399922975292012E-13, 5.249159239316488490E-32, 54.00000000000000000 ) ) ;
#123 = FACE_OUTER_BOUND ( 'NONE', #158, .T. ) ;
#124 = LOCAL_TIME ( 15, 34, 19.00000000000000000, #181 ) ;
#125 = CARTESIAN_POINT ( 'NONE',  ( 1.885399922975292012E-13, 6.999999999999987566, 54.00000000000000000 ) ) ;
#126 = VERTEX_POINT ( 'NONE', #140 ) ;
#127 = CARTESIAN_POINT ( 'NONE',  ( 0.0000000000000000000, 0.0000000000000000000, 0.0000000000000000000 ) ) ;
#128 = CARTESIAN_POINT ( 'NONE',  ( 1.885399922975292012E-13, -6.613092715395707467E-15, 54.00000000000000000 ) ) ;
#129 = DESIGN_CONTEXT ( 'detailed design', #20, 'design' ) ;
#130 = APPROVAL_STATUS ( 'not_yet_approved' ) ;
#131 = APPROVAL_STATUS ( 'not_yet_approved' ) ;
#132 = PERSON_AND_ORGANIZATION ( #28, #52 ) ;
#133 = CALENDAR_DATE ( 2021, 15, 10 ) ;
#134 = CIRCLE ( 'NONE', #80, 6.999999999999994671 ) ;
#135 = PLANE ( 'NONE',  #30 ) ;
#136 = ORIENTED_EDGE ( 'NONE', *, *, #180, .T. ) ;
#137 = APPROVAL ( #130, 'UNSPECIFIED' ) ;
#138 = DIRECTION ( 'NONE',  ( -3.491481338843133355E-15, 1.224646799147353207E-16, -1.000000000000000000 ) ) ;
#139 = APPROVAL_PERSON_ORGANIZATION ( #100, #137, #104 ) ;
#140 = CARTESIAN_POINT ( 'NONE',  ( 8.895566965843769628E-15, 6.999999999999987566, 2.547791639863446811 ) ) ;
#141 = ADVANCED_FACE ( 'NONE', ( #17 ), #89, .T. ) ;
#142 = CARTESIAN_POINT ( 'NONE',  ( 3.700970219173721104E-13, -1.298125607096194306E-14, 106.0000000000000000 ) ) ;
#143 =( GEOMETRIC_REPRESENTATION_CONTEXT ( 3 ) GLOBAL_UNCERTAINTY_ASSIGNED_CONTEXT ( ( #82 ) ) GLOBAL_UNIT_ASSIGNED_CONTEXT ( ( #13, #63, #109 ) ) REPRESENTATION_CONTEXT ( 'NONE', 'WORKASPACE' ) );
#144 = FACE_OUTER_BOUND ( 'NONE', #203, .T. ) ;
#145 = EDGE_CURVE ( 'NONE', #126, #126, #41, .T. ) ;
#146 = APPROVAL_PERSON_ORGANIZATION ( #167, #120, #113 ) ;
#147 = DATE_AND_TIME ( #36, #124 ) ;
#148 = DIRECTION ( 'NONE',  ( 0.0000000000000000000, 0.0000000000000000000, 1.000000000000000000 ) ) ;
#149 = PERSON_AND_ORGANIZATION_ROLE ( 'classification_officer' ) ;
#150 = CC_DESIGN_PERSON_AND_ORGANIZATION_ASSIGNMENT ( #202, #149, ( #98 ) ) ;
#151 = COORDINATED_UNIVERSAL_TIME_OFFSET ( 1, 0, .AHEAD. ) ;
#152 = APPROVAL_PERSON_ORGANIZATION ( #22, #188, #119 ) ;
#153 = CIRCLE ( 'NONE', #4, 6.000000000000000888 ) ;
#154 = ORIENTED_EDGE ( 'NONE', *, *, #145, .F. ) ;
#155 = EDGE_LOOP ( 'NONE', ( #27 ) ) ;
#156 = ADVANCED_FACE ( 'NONE', ( #144, #77 ), #3, .T. ) ;
#157 = LOCAL_TIME ( 15, 34, 19.00000000000000000, #69 ) ;
#158 = EDGE_LOOP ( 'NONE', ( #31 ) ) ;
#159 = FACE_OUTER_BOUND ( 'NONE', #121, .T. ) ;
#160 = DIRECTION ( 'NONE',  ( -3.491481338843133355E-15, 1.224646799147353207E-16, -1.000000000000000000 ) ) ;
#161 = MANIFOLD_SOLID_BREP ( 'Corps-Déplacer/Copier1[2]', #71 ) ;
#162 = DIRECTION ( 'NONE',  ( 4.402125587170832814E-31, 1.000000000000000000, 1.239088197126293036E-16 ) ) ;
#163 = CLOSED_SHELL ( 'NONE', ( #23, #57, #49, #83 ) ) ;
#164 = DIRECTION ( 'NONE',  ( 4.275831445896958607E-31, 1.000000000000000000, 1.224646799147353454E-16 ) ) ;
#165 = PRODUCT_DEFINITION_SHAPE ( 'NONE', 'NONE',  #74 ) ;
#166 = DATE_AND_TIME ( #182, #157 ) ;
#167 = PERSON_AND_ORGANIZATION ( #28, #52 ) ;
#168 = EDGE_CURVE ( 'NONE', #174, #174, #34, .T. ) ;
#169 = ORIENTED_EDGE ( 'NONE', *, *, #168, .T. ) ;
#170 = ORIENTED_EDGE ( 'NONE', *, *, #105, .F. ) ;
#171 = EDGE_LOOP ( 'NONE', ( #11 ) ) ;
#172 = LOCAL_TIME ( 15, 34, 19.00000000000000000, #48 ) ;
#173 = ORIENTED_EDGE ( 'NONE', *, *, #145, .T. ) ;
#174 = VERTEX_POINT ( 'NONE', #62 ) ;
#175 = VERTEX_POINT ( 'NONE', #94 ) ;
#176 = DIRECTION ( 'NONE',  ( 0.0000000000000000000, 1.000000000000000000, 0.0000000000000000000 ) ) ;
#177 = VERTEX_POINT ( 'NONE', #125 ) ;
#178 = CC_DESIGN_APPROVAL ( #120, ( #98 ) ) ;
#179 = DATE_AND_TIME ( #8, #59 ) ;
#180 = EDGE_CURVE ( 'NONE', #175, #175, #153, .T. ) ;
#181 = COORDINATED_UNIVERSAL_TIME_OFFSET ( 1, 0, .AHEAD. ) ;
#182 = CALENDAR_DATE ( 2021, 15, 10 ) ;
#183 = EDGE_LOOP ( 'NONE', ( #169 ) ) ;
#184 = CARTESIAN_POINT ( 'NONE',  ( 1.885399922975292012E-13, 5.249159239316488490E-32, 54.00000000000000000 ) ) ;
#185 = EDGE_LOOP ( 'NONE', ( #10 ) ) ;
#186 = DIRECTION ( 'NONE',  ( 3.491481338843133355E-15, -1.224646799147353207E-16, 1.000000000000000000 ) ) ;
#187 = AXIS2_PLACEMENT_3D ( 'NONE', #73, #97, #162 ) ;
#188 = APPROVAL ( #53, 'UNSPECIFIED' ) ;
#189 = AXIS2_PLACEMENT_3D ( 'NONE', #142, #110, #176 ) ;
#190 = CYLINDRICAL_SURFACE ( 'NONE', #5, 6.999999999999997335 ) ;
#191 = DIRECTION ( 'NONE',  ( -3.491481338843133355E-15, 1.224646799147353207E-16, -1.000000000000000000 ) ) ;
#192 = CARTESIAN_POINT ( 'NONE',  ( 3.700970219173721104E-13, 6.999999999999987566, 106.0000000000000000 ) ) ;
#193 = DIRECTION ( 'NONE',  ( 0.0000000000000000000, 1.000000000000000000, 0.0000000000000000000 ) ) ;
#194 = DIRECTION ( 'NONE',  ( -3.491481338843133355E-15, 1.224646799147353207E-16, -1.000000000000000000 ) ) ;
#195 = APPLICATION_PROTOCOL_DEFINITION ( 'international standard', 'config_control_design', 1994, #20 ) ;
#196 = CC_DESIGN_APPROVAL ( #188, ( #201 ) ) ;
#197 = PERSON_AND_ORGANIZATION_ROLE ( 'creator' ) ;
#198 = CARTESIAN_POINT ( 'NONE',  ( 0.0000000000000000000, 0.0000000000000000000, 0.0000000000000000000 ) ) ;
#199 = PERSON_AND_ORGANIZATION ( #28, #52 ) ;
#200 = CC_DESIGN_PERSON_AND_ORGANIZATION_ASSIGNMENT ( #199, #68, ( #74 ) ) ;
#201 = PRODUCT_DEFINITION_FORMATION_WITH_SPECIFIED_SOURCE ( 'ANY', '', #15, .NOT_KNOWN. ) ;
#202 = PERSON_AND_ORGANIZATION ( #28, #52 ) ;
#203 = EDGE_LOOP ( 'NONE', ( #154 ) ) ;
ENDSEC;
END-ISO-10303-21;
