ISO-10303-21;
HEADER;
FILE_DESCRIPTION (( 'STEP AP203' ),
    '1' );
FILE_NAME ('29135.step',
    '2021-10-15T13:34:18',
    ( '' ),
    ( '' ),
    'SwSTEP 2.0',
    'SolidWorks 2019',
    '' );
FILE_SCHEMA (( 'CONFIG_CONTROL_DESIGN' ));
ENDSEC;

DATA;
#1 = AXIS2_PLACEMENT_3D ( 'NONE', #67, #128, #143 ) ;
#2 = ORIENTED_EDGE ( 'NONE', *, *, #136, .T. ) ;
#3 = CARTESIAN_POINT ( 'NONE',  ( 8.260169325426350525E-15, -2.897277385463642735E-16, 2.365806522730341310 ) ) ;
#4 = ORIENTED_EDGE ( 'NONE', *, *, #112, .F. ) ;
#5 = CIRCLE ( 'NONE', #35, 6.499999999999993783 ) ;
#6 = CARTESIAN_POINT ( 'NONE',  ( 1.780655482809997885E-13, 6.499999999999987566, 51.00000000000000000 ) ) ;
#7 = DIRECTION ( 'NONE',  ( -3.491481338843133355E-15, 1.224646799147353207E-16, -1.000000000000000000 ) ) ;
#8 = VERTEX_POINT ( 'NONE', #73 ) ;
#9 = DESIGN_CONTEXT ( 'detailed design', #125, 'design' ) ;
#10 = CC_DESIGN_PERSON_AND_ORGANIZATION_ASSIGNMENT ( #156, #132, ( #100 ) ) ;
#11 = VERTEX_POINT ( 'NONE', #22 ) ;
#12 = PLANE ( 'NONE',  #95 ) ;
#13 = PERSON_AND_ORGANIZATION_ROLE ( 'classification_officer' ) ;
#14 = COORDINATED_UNIVERSAL_TIME_OFFSET ( 1, 0, .AHEAD. ) ;
#15 = CLOSED_SHELL ( 'NONE', ( #25, #194, #53 ) ) ;
#16 = DATE_TIME_ROLE ( 'creation_date' ) ;
#17 = AXIS2_PLACEMENT_3D ( 'NONE', #87, #192, #46 ) ;
#18 = EDGE_CURVE ( 'NONE', #167, #167, #120, .T. ) ;
#19 = FACE_OUTER_BOUND ( 'NONE', #78, .T. ) ;
#20 = LOCAL_TIME ( 15, 34, 18.00000000000000000, #47 ) ;
#21 = ORIENTED_EDGE ( 'NONE', *, *, #18, .T. ) ;
#22 = CARTESIAN_POINT ( 'NONE',  ( 3.526396152231564563E-13, 6.499999999999987566, 100.9999999999999858 ) ) ;
#23 = DIRECTION ( 'NONE',  ( 0.0000000000000000000, 1.000000000000000000, 0.0000000000000000000 ) ) ;
#24 =( LENGTH_UNIT ( ) NAMED_UNIT ( * ) SI_UNIT ( .MILLI., .METRE. ) );
#25 = ADVANCED_FACE ( 'NONE', ( #139 ), #141, .T. ) ;
#26 = FACE_OUTER_BOUND ( 'NONE', #158, .T. ) ;
#27 = FACE_OUTER_BOUND ( 'NONE', #49, .T. ) ;
#28 = SECURITY_CLASSIFICATION ( '', '', #101 ) ;
#29 = PERSON_AND_ORGANIZATION_ROLE ( 'design_supplier' ) ;
#30 = APPROVAL_DATE_TIME ( #103, #75 ) ;
#31 = PERSON_AND_ORGANIZATION ( #145, #38 ) ;
#32 = CC_DESIGN_APPROVAL ( #81, ( #144 ) ) ;
#33 = APPROVAL_DATE_TIME ( #88, #81 ) ;
#34 = EDGE_LOOP ( 'NONE', ( #108 ) ) ;
#35 = AXIS2_PLACEMENT_3D ( 'NONE', #85, #55, #40 ) ;
#36 = ORIENTED_EDGE ( 'NONE', *, *, #154, .F. ) ;
#37 = CARTESIAN_POINT ( 'NONE',  ( 3.561310965619995770E-13, 5.499999999999987566, 102.0000000000000000 ) ) ;
#38 = ORGANIZATION ( 'UNSPECIFIED', 'UNSPECIFIED', '' ) ;
#39 = CYLINDRICAL_SURFACE ( 'NONE', #153, 6.499999999999990230 ) ;
#40 = DIRECTION ( 'NONE',  ( 0.0000000000000000000, 1.000000000000000000, 0.0000000000000000000 ) ) ;
#41 = CC_DESIGN_PERSON_AND_ORGANIZATION_ASSIGNMENT ( #61, #62, ( #198 ) ) ;
#42 = CALENDAR_DATE ( 2021, 15, 10 ) ;
#43 =( GEOMETRIC_REPRESENTATION_CONTEXT ( 3 ) GLOBAL_UNCERTAINTY_ASSIGNED_CONTEXT ( ( #166 ) ) GLOBAL_UNIT_ASSIGNED_CONTEXT ( ( #24, #184, #69 ) ) REPRESENTATION_CONTEXT ( 'NONE', 'WORKASPACE' ) );
#44 = APPROVAL_STATUS ( 'not_yet_approved' ) ;
#45 = CALENDAR_DATE ( 2021, 15, 10 ) ;
#46 = DIRECTION ( 'NONE',  ( 1.000000000000000000, 0.0000000000000000000, 0.0000000000000000000 ) ) ;
#47 = COORDINATED_UNIVERSAL_TIME_OFFSET ( 1, 0, .AHEAD. ) ;
#48 = AXIS2_PLACEMENT_3D ( 'NONE', #186, #199, #162 ) ;
#49 = EDGE_LOOP ( 'NONE', ( #111 ) ) ;
#50 = EDGE_LOOP ( 'NONE', ( #110 ) ) ;
#51 = PLANE ( 'NONE',  #171 ) ;
#52 = ORIENTED_EDGE ( 'NONE', *, *, #58, .T. ) ;
#53 = ADVANCED_FACE ( 'NONE', ( #19 ), #51, .T. ) ;
#54 = DIRECTION ( 'NONE',  ( 4.275831445896958607E-31, 1.000000000000000000, 1.224646799147353207E-16 ) ) ;
#55 = DIRECTION ( 'NONE',  ( -3.491481338843133355E-15, 1.224646799147353207E-16, -1.000000000000000000 ) ) ;
#56 = LOCAL_TIME ( 15, 34, 18.00000000000000000, #14 ) ;
#57 = DIRECTION ( 'NONE',  ( 4.275831445896958607E-31, 1.000000000000000000, 1.224646799147353207E-16 ) ) ;
#58 = EDGE_CURVE ( 'NONE', #8, #8, #76, .T. ) ;
#59 = APPROVAL_ROLE ( '' ) ;
#60 = COORDINATED_UNIVERSAL_TIME_OFFSET ( 1, 0, .AHEAD. ) ;
#61 = PERSON_AND_ORGANIZATION ( #145, #38 ) ;
#62 = PERSON_AND_ORGANIZATION_ROLE ( 'creator' ) ;
#63 = CC_DESIGN_APPROVAL ( #75, ( #198 ) ) ;
#64 = EDGE_LOOP ( 'NONE', ( #36 ) ) ;
#65 = LOCAL_TIME ( 15, 34, 18.00000000000000000, #177 ) ;
#66 = ORIENTED_EDGE ( 'NONE', *, *, #112, .T. ) ;
#67 = CARTESIAN_POINT ( 'NONE',  ( 3.561310965619995770E-13, -1.249139735130300089E-14, 102.0000000000000000 ) ) ;
#68 = CARTESIAN_POINT ( 'NONE',  ( 0.0000000000000000000, 0.0000000000000000000, 0.0000000000000000000 ) ) ;
#69 =( NAMED_UNIT ( * ) SI_UNIT ( $, .STERADIAN. ) SOLID_ANGLE_UNIT ( ) );
#70 = ADVANCED_FACE ( 'NONE', ( #197, #80 ), #109, .T. ) ;
#71 = FACE_OUTER_BOUND ( 'NONE', #178, .T. ) ;
#72 = CIRCLE ( 'NONE', #48, 6.499999999999993783 ) ;
#73 = CARTESIAN_POINT ( 'NONE',  ( 8.260169325426353680E-15, 6.499999999999987566, 2.365806522730342198 ) ) ;
#74 = PERSON_AND_ORGANIZATION ( #145, #38 ) ;
#75 = APPROVAL ( #175, 'UNSPECIFIED' ) ;
#76 = CIRCLE ( 'NONE', #176, 6.499999999999987566 ) ;
#77 = ADVANCED_FACE ( 'NONE', ( #142, #26 ), #96, .T. ) ;
#78 = EDGE_LOOP ( 'NONE', ( #4 ) ) ;
#79 = APPROVAL_PERSON_ORGANIZATION ( #170, #83, #131 ) ;
#80 = FACE_BOUND ( 'NONE', #157, .T. ) ;
#81 = APPROVAL ( #135, 'UNSPECIFIED' ) ;
#82 = CARTESIAN_POINT ( 'NONE',  ( 8.260169325426350525E-15, -2.897277385463642735E-16, 2.365806522730341310 ) ) ;
#83 = APPROVAL ( #44, 'UNSPECIFIED' ) ;
#84 = DIRECTION ( 'NONE',  ( 4.740750632337820762E-31, 1.000000000000000000, 1.334402673828315804E-16 ) ) ;
#85 = CARTESIAN_POINT ( 'NONE',  ( 1.780655482809997885E-13, -6.245698675651500444E-15, 51.00000000000000000 ) ) ;
#86 = CARTESIAN_POINT ( 'NONE',  ( 1.780655482809997885E-13, 4.874219293651024088E-32, 51.00000000000000000 ) ) ;
#87 = CARTESIAN_POINT ( 'NONE',  ( 0.0000000000000000000, 0.0000000000000000000, 0.0000000000000000000 ) ) ;
#88 = DATE_AND_TIME ( #42, #65 ) ;
#89 = MANIFOLD_SOLID_BREP ( 'Corps-Déplacer/Copier1[2]', #15 ) ;
#90 = CLOSED_SHELL ( 'NONE', ( #168, #77, #70, #105 ) ) ;
#91 = PERSON_AND_ORGANIZATION_ROLE ( 'creator' ) ;
#92 = ORIENTED_EDGE ( 'NONE', *, *, #58, .F. ) ;
#93 = DIRECTION ( 'NONE',  ( 0.0000000000000000000, 1.000000000000000000, 0.0000000000000000000 ) ) ;
#94 = DIRECTION ( 'NONE',  ( -3.491481338843133355E-15, 1.224646799147353207E-16, -1.000000000000000000 ) ) ;
#95 = AXIS2_PLACEMENT_3D ( 'NONE', #146, #188, #116 ) ;
#96 = CYLINDRICAL_SURFACE ( 'NONE', #134, 6.499999999999997335 ) ;
#97 = AXIS2_PLACEMENT_3D ( 'NONE', #189, #169, #163 ) ;
#98 = DIRECTION ( 'NONE',  ( -4.275831445896958607E-31, -1.000000000000000000, -1.224646799147353207E-16 ) ) ;
#99 = DIRECTION ( 'NONE',  ( -3.491481338843133355E-15, 1.224646799147353207E-16, -1.000000000000000000 ) ) ;
#100 = PRODUCT ( '29135', '29135', '', ( #151 ) ) ;
#101 = SECURITY_CLASSIFICATION_LEVEL ( 'unclassified' ) ;
#102 = AXIS2_PLACEMENT_3D ( 'NONE', #3, #180, #159 ) ;
#103 = DATE_AND_TIME ( #174, #165 ) ;
#104 = DATE_AND_TIME ( #45, #200 ) ;
#105 = ADVANCED_FACE ( 'NONE', ( #27 ), #195, .F. ) ;
#106 = APPROVAL_ROLE ( '' ) ;
#107 = PRODUCT_DEFINITION_SHAPE ( 'NONE', 'NONE',  #198 ) ;
#108 = ORIENTED_EDGE ( 'NONE', *, *, #154, .T. ) ;
#109 = CONICAL_SURFACE ( 'NONE', #1, 5.500000000000000000, 0.7853981633974479459 ) ;
#110 = ORIENTED_EDGE ( 'NONE', *, *, #136, .F. ) ;
#111 = ORIENTED_EDGE ( 'NONE', *, *, #18, .F. ) ;
#112 = EDGE_CURVE ( 'NONE', #147, #147, #72, .T. ) ;
#113 = APPROVAL_PERSON_ORGANIZATION ( #190, #75, #59 ) ;
#114 = VERTEX_POINT ( 'NONE', #6 ) ;
#115 = CARTESIAN_POINT ( 'NONE',  ( 1.780655482809997885E-13, 6.499999999999987566, 51.00000000000000000 ) ) ;
#116 = DIRECTION ( 'NONE',  ( -4.275831445896958607E-31, -1.000000000000000000, -1.224646799147353207E-16 ) ) ;
#117 = DIRECTION ( 'NONE',  ( 3.491481338843133355E-15, -1.224646799147353207E-16, 1.000000000000000000 ) ) ;
#118 = APPROVAL_DATE_TIME ( #104, #83 ) ;
#119 = CALENDAR_DATE ( 2021, 15, 10 ) ;
#120 = CIRCLE ( 'NONE', #179, 5.500000000000000000 ) ;
#121 = CC_DESIGN_PERSON_AND_ORGANIZATION_ASSIGNMENT ( #74, #13, ( #28 ) ) ;
#122 = AXIS2_PLACEMENT_3D ( 'NONE', #164, #201, #23 ) ;
#123 = CIRCLE ( 'NONE', #122, 6.500000000000000000 ) ;
#124 = CARTESIAN_POINT ( 'NONE',  ( 3.561310965619995770E-13, -1.249139735130300089E-14, 102.0000000000000000 ) ) ;
#125 = APPLICATION_CONTEXT ( 'configuration controlled 3d designs of mechanical parts and assemblies' ) ;
#126 = FACE_OUTER_BOUND ( 'NONE', #181, .T. ) ;
#127 = DIRECTION ( 'NONE',  ( -3.491481338843133355E-15, 1.224646799147353207E-16, -1.000000000000000000 ) ) ;
#128 = DIRECTION ( 'NONE',  ( -3.491481338843133355E-15, 1.224646799147353207E-16, -1.000000000000000000 ) ) ;
#129 = CC_DESIGN_APPROVAL ( #83, ( #28 ) ) ;
#130 = CALENDAR_DATE ( 2021, 15, 10 ) ;
#131 = APPROVAL_ROLE ( '' ) ;
#132 = PERSON_AND_ORGANIZATION_ROLE ( 'design_owner' ) ;
#133 = APPLICATION_CONTEXT ( 'configuration controlled 3d designs of mechanical parts and assemblies' ) ;
#134 = AXIS2_PLACEMENT_3D ( 'NONE', #148, #7, #57 ) ;
#135 = APPROVAL_STATUS ( 'not_yet_approved' ) ;
#136 = EDGE_CURVE ( 'NONE', #11, #11, #123, .T. ) ;
#137 = SHAPE_DEFINITION_REPRESENTATION ( #107, #172 ) ;
#138 = CC_DESIGN_PERSON_AND_ORGANIZATION_ASSIGNMENT ( #173, #29, ( #144 ) ) ;
#139 = FACE_OUTER_BOUND ( 'NONE', #160, .T. ) ;
#140 = CC_DESIGN_DATE_AND_TIME_ASSIGNMENT ( #203, #191, ( #28 ) ) ;
#141 = CONICAL_SURFACE ( 'NONE', #102, 6.499999999999987566, 1.221730476396026610 ) ;
#142 = FACE_OUTER_BOUND ( 'NONE', #64, .T. ) ;
#143 = DIRECTION ( 'NONE',  ( 0.0000000000000000000, 1.000000000000000000, 0.0000000000000000000 ) ) ;
#144 = PRODUCT_DEFINITION_FORMATION_WITH_SPECIFIED_SOURCE ( 'ANY', '', #100, .NOT_KNOWN. ) ;
#145 = PERSON ( 'UNSPECIFIED', 'UNSPECIFIED', 'UNSPECIFIED', ('UNSPECIFIED'), ('UNSPECIFIED'), ('UNSPECIFIED') ) ;
#146 = CARTESIAN_POINT ( 'NONE',  ( 1.780655482809997885E-13, 4.874219293651024088E-32, 51.00000000000000000 ) ) ;
#147 = VERTEX_POINT ( 'NONE', #115 ) ;
#148 = CARTESIAN_POINT ( 'NONE',  ( 0.0000000000000000000, 0.0000000000000000000, 0.0000000000000000000 ) ) ;
#149 = APPLICATION_PROTOCOL_DEFINITION ( 'international standard', 'config_control_design', 1994, #125 ) ;
#150 = PRODUCT_RELATED_PRODUCT_CATEGORY ( 'detail', '', ( #100 ) ) ;
#151 = MECHANICAL_CONTEXT ( 'NONE', #133, 'mechanical' ) ;
#152 = PERSON_AND_ORGANIZATION ( #145, #38 ) ;
#153 = AXIS2_PLACEMENT_3D ( 'NONE', #68, #127, #54 ) ;
#154 = EDGE_CURVE ( 'NONE', #114, #114, #5, .T. ) ;
#155 = DATE_AND_TIME ( #119, #20 ) ;
#156 = PERSON_AND_ORGANIZATION ( #145, #38 ) ;
#157 = EDGE_LOOP ( 'NONE', ( #21 ) ) ;
#158 = EDGE_LOOP ( 'NONE', ( #2 ) ) ;
#159 = DIRECTION ( 'NONE',  ( -4.740750632337820762E-31, -1.000000000000000000, -1.334402673828315804E-16 ) ) ;
#160 = EDGE_LOOP ( 'NONE', ( #52 ) ) ;
#161 = MANIFOLD_SOLID_BREP ( 'Corps-Déplacer/Copier1[1]', #90 ) ;
#162 = DIRECTION ( 'NONE',  ( 0.0000000000000000000, 1.000000000000000000, 0.0000000000000000000 ) ) ;
#163 = DIRECTION ( 'NONE',  ( 4.275831445896958607E-31, 1.000000000000000000, 1.224646799147353207E-16 ) ) ;
#164 = CARTESIAN_POINT ( 'NONE',  ( 3.526396152231564563E-13, -1.236893267138826574E-14, 100.9999999999999858 ) ) ;
#165 = LOCAL_TIME ( 15, 34, 18.00000000000000000, #193 ) ;
#166 = UNCERTAINTY_MEASURE_WITH_UNIT (LENGTH_MEASURE( 1.000000000000000082E-05 ), #24, 'distance_accuracy_value', 'NONE');
#167 = VERTEX_POINT ( 'NONE', #37 ) ;
#168 = ADVANCED_FACE ( 'NONE', ( #187 ), #12, .F. ) ;
#169 = DIRECTION ( 'NONE',  ( -3.491481338843133355E-15, 1.224646799147353207E-16, -1.000000000000000000 ) ) ;
#170 = PERSON_AND_ORGANIZATION ( #145, #38 ) ;
#171 = AXIS2_PLACEMENT_3D ( 'NONE', #86, #117, #98 ) ;
#172 = ADVANCED_BREP_SHAPE_REPRESENTATION ( '29135', ( #161, #89, #17 ), #43 ) ;
#173 = PERSON_AND_ORGANIZATION ( #145, #38 ) ;
#174 = CALENDAR_DATE ( 2021, 15, 10 ) ;
#175 = APPROVAL_STATUS ( 'not_yet_approved' ) ;
#176 = AXIS2_PLACEMENT_3D ( 'NONE', #82, #99, #84 ) ;
#177 = COORDINATED_UNIVERSAL_TIME_OFFSET ( 1, 0, .AHEAD. ) ;
#178 = EDGE_LOOP ( 'NONE', ( #66 ) ) ;
#179 = AXIS2_PLACEMENT_3D ( 'NONE', #124, #94, #93 ) ;
#180 = DIRECTION ( 'NONE',  ( 3.491481338843133355E-15, -1.224646799147353207E-16, 1.000000000000000000 ) ) ;
#181 = EDGE_LOOP ( 'NONE', ( #92 ) ) ;
#182 = APPROVAL_PERSON_ORGANIZATION ( #31, #81, #106 ) ;
#183 = CC_DESIGN_SECURITY_CLASSIFICATION ( #28, ( #144 ) ) ;
#184 =( NAMED_UNIT ( * ) PLANE_ANGLE_UNIT ( ) SI_UNIT ( $, .RADIAN. ) );
#185 = CC_DESIGN_PERSON_AND_ORGANIZATION_ASSIGNMENT ( #152, #91, ( #144 ) ) ;
#186 = CARTESIAN_POINT ( 'NONE',  ( 1.780655482809997885E-13, -6.245698675651500444E-15, 51.00000000000000000 ) ) ;
#187 = FACE_OUTER_BOUND ( 'NONE', #34, .T. ) ;
#188 = DIRECTION ( 'NONE',  ( 3.491481338843133355E-15, -1.224646799147353207E-16, 1.000000000000000000 ) ) ;
#189 = CARTESIAN_POINT ( 'NONE',  ( 3.561310965619995770E-13, 4.124339402320089811E-32, 102.0000000000000000 ) ) ;
#190 = PERSON_AND_ORGANIZATION ( #145, #38 ) ;
#191 = DATE_TIME_ROLE ( 'classification_date' ) ;
#192 = DIRECTION ( 'NONE',  ( 0.0000000000000000000, 0.0000000000000000000, 1.000000000000000000 ) ) ;
#193 = COORDINATED_UNIVERSAL_TIME_OFFSET ( 1, 0, .AHEAD. ) ;
#194 = ADVANCED_FACE ( 'NONE', ( #126, #71 ), #39, .T. ) ;
#195 = PLANE ( 'NONE',  #97 ) ;
#196 = CC_DESIGN_DATE_AND_TIME_ASSIGNMENT ( #155, #16, ( #198 ) ) ;
#197 = FACE_OUTER_BOUND ( 'NONE', #50, .T. ) ;
#198 = PRODUCT_DEFINITION ( 'UNKNOWN', '', #144, #9 ) ;
#199 = DIRECTION ( 'NONE',  ( -3.491481338843133355E-15, 1.224646799147353207E-16, -1.000000000000000000 ) ) ;
#200 = LOCAL_TIME ( 15, 34, 18.00000000000000000, #60 ) ;
#201 = DIRECTION ( 'NONE',  ( -3.491481338843133355E-15, 1.224646799147353207E-16, -1.000000000000000000 ) ) ;
#202 = APPLICATION_PROTOCOL_DEFINITION ( 'international standard', 'config_control_design', 1994, #133 ) ;
#203 = DATE_AND_TIME ( #130, #56 ) ;
ENDSEC;
END-ISO-10303-21;
