ISO-10303-21;
HEADER;
FILE_DESCRIPTION (( 'STEP AP203' ),
    '1' );
FILE_NAME ('29134.step',
    '2021-10-15T13:34:17',
    ( '' ),
    ( '' ),
    'SwSTEP 2.0',
    'SolidWorks 2019',
    '' );
FILE_SCHEMA (( 'CONFIG_CONTROL_DESIGN' ));
ENDSEC;

DATA;
#1 = DIRECTION ( 'NONE',  ( 0.0000000000000000000, 0.0000000000000000000, 1.000000000000000000 ) ) ;
#2 = CALENDAR_DATE ( 2021, 15, 10 ) ;
#3 = AXIS2_PLACEMENT_3D ( 'NONE', #98, #44, #24 ) ;
#4 = CARTESIAN_POINT ( 'NONE',  ( 3.561310965619995770E-13, -1.249139735130300089E-14, 102.0000000000000000 ) ) ;
#5 = PRODUCT ( '29134', '29134', '', ( #109 ) ) ;
#6 = ORIENTED_EDGE ( 'NONE', *, *, #133, .T. ) ;
#7 = DIRECTION ( 'NONE',  ( -3.491481338843133355E-15, 1.224646799147353207E-16, -1.000000000000000000 ) ) ;
#8 = AXIS2_PLACEMENT_3D ( 'NONE', #71, #74, #46 ) ;
#9 = CYLINDRICAL_SURFACE ( 'NONE', #175, 5.999999999999998224 ) ;
#10 = CIRCLE ( 'NONE', #8, 5.999999999999994671 ) ;
#11 = MANIFOLD_SOLID_BREP ( 'Corps-Déplacer/Copier1[2]', #14 ) ;
#12 = CARTESIAN_POINT ( 'NONE',  ( 3.526396152231564058E-13, 5.999999999999988454, 100.9999999999999716 ) ) ;
#13 = VERTEX_POINT ( 'NONE', #12 ) ;
#14 = CLOSED_SHELL ( 'NONE', ( #22, #17, #185 ) ) ;
#15 = FACE_OUTER_BOUND ( 'NONE', #167, .T. ) ;
#16 = PERSON_AND_ORGANIZATION ( #158, #36 ) ;
#17 = ADVANCED_FACE ( 'NONE', ( #114, #182 ), #26, .T. ) ;
#18 = CALENDAR_DATE ( 2021, 15, 10 ) ;
#19 = APPROVAL_DATE_TIME ( #76, #120 ) ;
#20 = PERSON_AND_ORGANIZATION ( #158, #36 ) ;
#21 = DATE_AND_TIME ( #124, #172 ) ;
#22 = ADVANCED_FACE ( 'NONE', ( #183 ), #54, .T. ) ;
#23 = AXIS2_PLACEMENT_3D ( 'NONE', #137, #200, #30 ) ;
#24 = DIRECTION ( 'NONE',  ( -5.135813185032639159E-31, -1.000000000000000000, -1.445602896647342121E-16 ) ) ;
#25 = CC_DESIGN_PERSON_AND_ORGANIZATION_ASSIGNMENT ( #92, #64, ( #5 ) ) ;
#26 = CYLINDRICAL_SURFACE ( 'NONE', #113, 5.999999999999991118 ) ;
#27 = EDGE_LOOP ( 'NONE', ( #40 ) ) ;
#28 = DIRECTION ( 'NONE',  ( -3.491481338843133355E-15, 1.224646799147353207E-16, -1.000000000000000000 ) ) ;
#29 = DIRECTION ( 'NONE',  ( 3.491481338843133355E-15, -1.224646799147353207E-16, 1.000000000000000000 ) ) ;
#30 = DIRECTION ( 'NONE',  ( 0.0000000000000000000, 1.000000000000000000, 0.0000000000000000000 ) ) ;
#31 = VERTEX_POINT ( 'NONE', #154 ) ;
#32 = CARTESIAN_POINT ( 'NONE',  ( 1.780655482809997885E-13, 5.999999999999988454, 51.00000000000000000 ) ) ;
#33 = CLOSED_SHELL ( 'NONE', ( #169, #194, #160, #91 ) ) ;
#34 = COORDINATED_UNIVERSAL_TIME_OFFSET ( 1, 0, .AHEAD. ) ;
#35 = DATE_TIME_ROLE ( 'creation_date' ) ;
#36 = ORGANIZATION ( 'UNSPECIFIED', 'UNSPECIFIED', '' ) ;
#37 = APPLICATION_PROTOCOL_DEFINITION ( 'international standard', 'config_control_design', 1994, #116 ) ;
#38 = DATE_AND_TIME ( #161, #191 ) ;
#39 = CIRCLE ( 'NONE', #163, 5.000000000000000888 ) ;
#40 = ORIENTED_EDGE ( 'NONE', *, *, #66, .T. ) ;
#41 = CARTESIAN_POINT ( 'NONE',  ( 0.0000000000000000000, 0.0000000000000000000, 0.0000000000000000000 ) ) ;
#42 = CC_DESIGN_DATE_AND_TIME_ASSIGNMENT ( #165, #145, ( #68 ) ) ;
#43 = AXIS2_PLACEMENT_3D ( 'NONE', #59, #28, #85 ) ;
#44 = DIRECTION ( 'NONE',  ( 3.491481338843133355E-15, -1.224646799147353207E-16, 1.000000000000000000 ) ) ;
#45 =( NAMED_UNIT ( * ) PLANE_ANGLE_UNIT ( ) SI_UNIT ( $, .RADIAN. ) );
#46 = DIRECTION ( 'NONE',  ( 0.0000000000000000000, 1.000000000000000000, 0.0000000000000000000 ) ) ;
#47 =( LENGTH_UNIT ( ) NAMED_UNIT ( * ) SI_UNIT ( .MILLI., .METRE. ) );
#48 =( GEOMETRIC_REPRESENTATION_CONTEXT ( 3 ) GLOBAL_UNCERTAINTY_ASSIGNED_CONTEXT ( ( #134 ) ) GLOBAL_UNIT_ASSIGNED_CONTEXT ( ( #47, #45, #100 ) ) REPRESENTATION_CONTEXT ( 'NONE', 'WORKASPACE' ) );
#49 = COORDINATED_UNIVERSAL_TIME_OFFSET ( 1, 0, .AHEAD. ) ;
#50 = CC_DESIGN_PERSON_AND_ORGANIZATION_ASSIGNMENT ( #20, #89, ( #68 ) ) ;
#51 = PERSON_AND_ORGANIZATION_ROLE ( 'creator' ) ;
#52 = ADVANCED_BREP_SHAPE_REPRESENTATION ( '29134', ( #146, #11, #166 ), #48 ) ;
#53 = EDGE_CURVE ( 'NONE', #173, #173, #39, .T. ) ;
#54 = CONICAL_SURFACE ( 'NONE', #3, 5.999999999999988454, 1.221730476396026610 ) ;
#55 = DESIGN_CONTEXT ( 'detailed design', #142, 'design' ) ;
#56 = EDGE_LOOP ( 'NONE', ( #82 ) ) ;
#57 = AXIS2_PLACEMENT_3D ( 'NONE', #157, #88, #84 ) ;
#58 = DIRECTION ( 'NONE',  ( 0.0000000000000000000, 1.000000000000000000, 0.0000000000000000000 ) ) ;
#59 = CARTESIAN_POINT ( 'NONE',  ( 1.780655482809997885E-13, -6.245698675651500444E-15, 51.00000000000000000 ) ) ;
#60 = PLANE ( 'NONE',  #128 ) ;
#61 = LOCAL_TIME ( 15, 34, 17.00000000000000000, #49 ) ;
#62 = DIRECTION ( 'NONE',  ( 4.275831445896958607E-31, 1.000000000000000000, 1.224646799147353207E-16 ) ) ;
#63 = CC_DESIGN_APPROVAL ( #187, ( #156 ) ) ;
#64 = PERSON_AND_ORGANIZATION_ROLE ( 'design_owner' ) ;
#65 = PERSON_AND_ORGANIZATION_ROLE ( 'creator' ) ;
#66 = EDGE_CURVE ( 'NONE', #13, #13, #86, .T. ) ;
#67 = SECURITY_CLASSIFICATION_LEVEL ( 'unclassified' ) ;
#68 = SECURITY_CLASSIFICATION ( '', '', #67 ) ;
#69 = DIRECTION ( 'NONE',  ( -3.491481338843133355E-15, 1.224646799147353207E-16, -1.000000000000000000 ) ) ;
#70 = DIRECTION ( 'NONE',  ( -4.275831445896958607E-31, -1.000000000000000000, -1.224646799147353207E-16 ) ) ;
#71 = CARTESIAN_POINT ( 'NONE',  ( 1.780655482809997885E-13, -6.245698675651500444E-15, 51.00000000000000000 ) ) ;
#72 = CC_DESIGN_PERSON_AND_ORGANIZATION_ASSIGNMENT ( #94, #65, ( #156 ) ) ;
#73 = FACE_OUTER_BOUND ( 'NONE', #111, .T. ) ;
#74 = DIRECTION ( 'NONE',  ( -3.491481338843133355E-15, 1.224646799147353207E-16, -1.000000000000000000 ) ) ;
#75 = APPROVAL_STATUS ( 'not_yet_approved' ) ;
#76 = DATE_AND_TIME ( #2, #168 ) ;
#77 = COORDINATED_UNIVERSAL_TIME_OFFSET ( 1, 0, .AHEAD. ) ;
#78 = COORDINATED_UNIVERSAL_TIME_OFFSET ( 1, 0, .AHEAD. ) ;
#79 = CC_DESIGN_DATE_AND_TIME_ASSIGNMENT ( #177, #35, ( #156 ) ) ;
#80 = APPROVAL_DATE_TIME ( #21, #162 ) ;
#81 = CC_DESIGN_APPROVAL ( #162, ( #68 ) ) ;
#82 = ORIENTED_EDGE ( 'NONE', *, *, #118, .F. ) ;
#83 = EDGE_LOOP ( 'NONE', ( #132 ) ) ;
#84 = DIRECTION ( 'NONE',  ( -4.275831445896958607E-31, -1.000000000000000000, -1.224646799147353207E-16 ) ) ;
#85 = DIRECTION ( 'NONE',  ( 0.0000000000000000000, 1.000000000000000000, 0.0000000000000000000 ) ) ;
#86 = CIRCLE ( 'NONE', #148, 6.000000000000000888 ) ;
#87 = FACE_OUTER_BOUND ( 'NONE', #27, .T. ) ;
#88 = DIRECTION ( 'NONE',  ( 3.491481338843133355E-15, -1.224646799147353207E-16, 1.000000000000000000 ) ) ;
#89 = PERSON_AND_ORGANIZATION_ROLE ( 'classification_officer' ) ;
#90 = CARTESIAN_POINT ( 'NONE',  ( 0.0000000000000000000, 0.0000000000000000000, 0.0000000000000000000 ) ) ;
#91 = ADVANCED_FACE ( 'NONE', ( #15 ), #60, .F. ) ;
#92 = PERSON_AND_ORGANIZATION ( #158, #36 ) ;
#93 = APPROVAL_STATUS ( 'not_yet_approved' ) ;
#94 = PERSON_AND_ORGANIZATION ( #158, #36 ) ;
#95 = PRODUCT_DEFINITION_FORMATION_WITH_SPECIFIED_SOURCE ( 'ANY', '', #5, .NOT_KNOWN. ) ;
#96 = EDGE_LOOP ( 'NONE', ( #130 ) ) ;
#97 = EDGE_LOOP ( 'NONE', ( #198 ) ) ;
#98 = CARTESIAN_POINT ( 'NONE',  ( 7.624771685008939310E-15, -2.674409894274131831E-16, 2.183821405597238474 ) ) ;
#99 = CARTESIAN_POINT ( 'NONE',  ( 1.780655482809997885E-13, 4.499279347985560234E-32, 51.00000000000000000 ) ) ;
#100 =( NAMED_UNIT ( * ) SI_UNIT ( $, .STERADIAN. ) SOLID_ANGLE_UNIT ( ) );
#101 = CC_DESIGN_SECURITY_CLASSIFICATION ( #68, ( #95 ) ) ;
#102 = PLANE ( 'NONE',  #57 ) ;
#103 = DIRECTION ( 'NONE',  ( -3.491481338843133355E-15, 1.224646799147353207E-16, -1.000000000000000000 ) ) ;
#104 = CONICAL_SURFACE ( 'NONE', #23, 5.000000000000000888, 0.7853981633974410625 ) ;
#105 = PRODUCT_RELATED_PRODUCT_CATEGORY ( 'detail', '', ( #5 ) ) ;
#106 = APPROVAL_DATE_TIME ( #38, #187 ) ;
#107 = PERSON_AND_ORGANIZATION_ROLE ( 'design_supplier' ) ;
#108 = CIRCLE ( 'NONE', #43, 5.999999999999994671 ) ;
#109 = MECHANICAL_CONTEXT ( 'NONE', #116, 'mechanical' ) ;
#110 = CIRCLE ( 'NONE', #143, 5.999999999999988454 ) ;
#111 = EDGE_LOOP ( 'NONE', ( #135 ) ) ;
#112 = DIRECTION ( 'NONE',  ( 4.275831445896959482E-31, 1.000000000000000000, 1.224646799147353207E-16 ) ) ;
#113 = AXIS2_PLACEMENT_3D ( 'NONE', #41, #7, #112 ) ;
#114 = FACE_OUTER_BOUND ( 'NONE', #56, .T. ) ;
#115 = FACE_OUTER_BOUND ( 'NONE', #151, .T. ) ;
#116 = APPLICATION_CONTEXT ( 'configuration controlled 3d designs of mechanical parts and assemblies' ) ;
#117 = DIRECTION ( 'NONE',  ( -3.491481338843133355E-15, 1.224646799147353207E-16, -1.000000000000000000 ) ) ;
#118 = EDGE_CURVE ( 'NONE', #190, #190, #110, .T. ) ;
#119 = VERTEX_POINT ( 'NONE', #32 ) ;
#120 = APPROVAL ( #93, 'UNSPECIFIED' ) ;
#121 = CARTESIAN_POINT ( 'NONE',  ( 3.561310965619995770E-13, 4.999999999999988454, 102.0000000000000000 ) ) ;
#122 = PERSON_AND_ORGANIZATION ( #158, #36 ) ;
#123 = CC_DESIGN_APPROVAL ( #120, ( #95 ) ) ;
#124 = CALENDAR_DATE ( 2021, 15, 10 ) ;
#125 = PRODUCT_DEFINITION_SHAPE ( 'NONE', 'NONE',  #156 ) ;
#126 = PERSON_AND_ORGANIZATION ( #158, #36 ) ;
#127 = COORDINATED_UNIVERSAL_TIME_OFFSET ( 1, 0, .AHEAD. ) ;
#128 = AXIS2_PLACEMENT_3D ( 'NONE', #189, #103, #62 ) ;
#129 = EDGE_CURVE ( 'NONE', #31, #31, #108, .T. ) ;
#130 = ORIENTED_EDGE ( 'NONE', *, *, #118, .T. ) ;
#131 = EDGE_LOOP ( 'NONE', ( #6 ) ) ;
#132 = ORIENTED_EDGE ( 'NONE', *, *, #133, .F. ) ;
#133 = EDGE_CURVE ( 'NONE', #119, #119, #10, .T. ) ;
#134 = UNCERTAINTY_MEASURE_WITH_UNIT (LENGTH_MEASURE( 1.000000000000000082E-05 ), #47, 'distance_accuracy_value', 'NONE');
#135 = ORIENTED_EDGE ( 'NONE', *, *, #129, .F. ) ;
#136 = FACE_OUTER_BOUND ( 'NONE', #97, .T. ) ;
#137 = CARTESIAN_POINT ( 'NONE',  ( 3.561310965619995770E-13, -1.249139735130300089E-14, 102.0000000000000000 ) ) ;
#138 = CARTESIAN_POINT ( 'NONE',  ( 3.526396152231564058E-13, -1.236893267138826416E-14, 100.9999999999999716 ) ) ;
#139 = DIRECTION ( 'NONE',  ( -3.491481338843133355E-15, 1.224646799147353207E-16, -1.000000000000000000 ) ) ;
#140 = APPROVAL_ROLE ( '' ) ;
#141 = CALENDAR_DATE ( 2021, 15, 10 ) ;
#142 = APPLICATION_CONTEXT ( 'configuration controlled 3d designs of mechanical parts and assemblies' ) ;
#143 = AXIS2_PLACEMENT_3D ( 'NONE', #170, #188, #174 ) ;
#144 = PERSON_AND_ORGANIZATION ( #158, #36 ) ;
#145 = DATE_TIME_ROLE ( 'classification_date' ) ;
#146 = MANIFOLD_SOLID_BREP ( 'Corps-Déplacer/Copier1[1]', #33 ) ;
#147 = SHAPE_DEFINITION_REPRESENTATION ( #125, #52 ) ;
#148 = AXIS2_PLACEMENT_3D ( 'NONE', #138, #117, #58 ) ;
#149 = ORIENTED_EDGE ( 'NONE', *, *, #53, .F. ) ;
#150 = APPROVAL_PERSON_ORGANIZATION ( #122, #187, #180 ) ;
#151 = EDGE_LOOP ( 'NONE', ( #195 ) ) ;
#152 = FACE_BOUND ( 'NONE', #197, .T. ) ;
#153 = APPROVAL_PERSON_ORGANIZATION ( #126, #120, #164 ) ;
#154 = CARTESIAN_POINT ( 'NONE',  ( 1.780655482809997885E-13, 5.999999999999988454, 51.00000000000000000 ) ) ;
#155 = CARTESIAN_POINT ( 'NONE',  ( 7.624771685008940888E-15, 5.999999999999988454, 2.183821405597239362 ) ) ;
#156 = PRODUCT_DEFINITION ( 'UNKNOWN', '', #95, #55 ) ;
#157 = CARTESIAN_POINT ( 'NONE',  ( 1.780655482809997885E-13, 4.499279347985560234E-32, 51.00000000000000000 ) ) ;
#158 = PERSON ( 'UNSPECIFIED', 'UNSPECIFIED', 'UNSPECIFIED', ('UNSPECIFIED'), ('UNSPECIFIED'), ('UNSPECIFIED') ) ;
#159 = AXIS2_PLACEMENT_3D ( 'NONE', #99, #29, #70 ) ;
#160 = ADVANCED_FACE ( 'NONE', ( #136, #152 ), #104, .T. ) ;
#161 = CALENDAR_DATE ( 2021, 15, 10 ) ;
#162 = APPROVAL ( #75, 'UNSPECIFIED' ) ;
#163 = AXIS2_PLACEMENT_3D ( 'NONE', #4, #69, #184 ) ;
#164 = APPROVAL_ROLE ( '' ) ;
#165 = DATE_AND_TIME ( #141, #181 ) ;
#166 = AXIS2_PLACEMENT_3D ( 'NONE', #90, #1, #176 ) ;
#167 = EDGE_LOOP ( 'NONE', ( #149 ) ) ;
#168 = LOCAL_TIME ( 15, 34, 17.00000000000000000, #34 ) ;
#169 = ADVANCED_FACE ( 'NONE', ( #115 ), #102, .F. ) ;
#170 = CARTESIAN_POINT ( 'NONE',  ( 7.624771685008939310E-15, -2.674409894274131831E-16, 2.183821405597238474 ) ) ;
#171 = FACE_OUTER_BOUND ( 'NONE', #83, .T. ) ;
#172 = LOCAL_TIME ( 15, 34, 17.00000000000000000, #78 ) ;
#173 = VERTEX_POINT ( 'NONE', #121 ) ;
#174 = DIRECTION ( 'NONE',  ( 5.135813185032639159E-31, 1.000000000000000000, 1.445602896647342121E-16 ) ) ;
#175 = AXIS2_PLACEMENT_3D ( 'NONE', #186, #139, #199 ) ;
#176 = DIRECTION ( 'NONE',  ( 1.000000000000000000, 0.0000000000000000000, 0.0000000000000000000 ) ) ;
#177 = DATE_AND_TIME ( #18, #61 ) ;
#178 = APPLICATION_PROTOCOL_DEFINITION ( 'international standard', 'config_control_design', 1994, #142 ) ;
#179 = APPROVAL_STATUS ( 'not_yet_approved' ) ;
#180 = APPROVAL_ROLE ( '' ) ;
#181 = LOCAL_TIME ( 15, 34, 17.00000000000000000, #77 ) ;
#182 = FACE_OUTER_BOUND ( 'NONE', #131, .T. ) ;
#183 = FACE_OUTER_BOUND ( 'NONE', #96, .T. ) ;
#184 = DIRECTION ( 'NONE',  ( 0.0000000000000000000, 1.000000000000000000, 0.0000000000000000000 ) ) ;
#185 = ADVANCED_FACE ( 'NONE', ( #171 ), #201, .T. ) ;
#186 = CARTESIAN_POINT ( 'NONE',  ( 0.0000000000000000000, 0.0000000000000000000, 0.0000000000000000000 ) ) ;
#187 = APPROVAL ( #179, 'UNSPECIFIED' ) ;
#188 = DIRECTION ( 'NONE',  ( -3.491481338843133355E-15, 1.224646799147353207E-16, -1.000000000000000000 ) ) ;
#189 = CARTESIAN_POINT ( 'NONE',  ( 3.561310965619995770E-13, 3.749399456654626503E-32, 102.0000000000000000 ) ) ;
#190 = VERTEX_POINT ( 'NONE', #155 ) ;
#191 = LOCAL_TIME ( 15, 34, 17.00000000000000000, #127 ) ;
#192 = PERSON_AND_ORGANIZATION ( #158, #36 ) ;
#193 = CC_DESIGN_PERSON_AND_ORGANIZATION_ASSIGNMENT ( #192, #51, ( #95 ) ) ;
#194 = ADVANCED_FACE ( 'NONE', ( #73, #87 ), #9, .T. ) ;
#195 = ORIENTED_EDGE ( 'NONE', *, *, #129, .T. ) ;
#196 = ORIENTED_EDGE ( 'NONE', *, *, #53, .T. ) ;
#197 = EDGE_LOOP ( 'NONE', ( #196 ) ) ;
#198 = ORIENTED_EDGE ( 'NONE', *, *, #66, .F. ) ;
#199 = DIRECTION ( 'NONE',  ( 4.275831445896958607E-31, 1.000000000000000000, 1.224646799147353207E-16 ) ) ;
#200 = DIRECTION ( 'NONE',  ( -3.491481338843133355E-15, 1.224646799147353207E-16, -1.000000000000000000 ) ) ;
#201 = PLANE ( 'NONE',  #159 ) ;
#202 = CC_DESIGN_PERSON_AND_ORGANIZATION_ASSIGNMENT ( #16, #107, ( #95 ) ) ;
#203 = APPROVAL_PERSON_ORGANIZATION ( #144, #162, #140 ) ;
ENDSEC;
END-ISO-10303-21;
