ISO-10303-21;
HEADER;
FILE_DESCRIPTION (( 'STEP AP203' ),
    '1' );
FILE_NAME ('29133.step',
    '2021-10-15T13:34:17',
    ( '' ),
    ( '' ),
    'SwSTEP 2.0',
    'SolidWorks 2019',
    '' );
FILE_SCHEMA (( 'CONFIG_CONTROL_DESIGN' ));
ENDSEC;

DATA;
#1 = EDGE_CURVE ( 'NONE', #140, #140, #175, .T. ) ;
#2 = CC_DESIGN_APPROVAL ( #95, ( #96 ) ) ;
#3 = COORDINATED_UNIVERSAL_TIME_OFFSET ( 1, 0, .AHEAD. ) ;
#4 = DIRECTION ( 'NONE',  ( 3.491481338843133355E-15, -1.224646799147353454E-16, 1.000000000000000000 ) ) ;
#5 = DIRECTION ( 'NONE',  ( 0.0000000000000000000, 0.0000000000000000000, 1.000000000000000000 ) ) ;
#6 = COORDINATED_UNIVERSAL_TIME_OFFSET ( 1, 0, .AHEAD. ) ;
#7 = FACE_OUTER_BOUND ( 'NONE', #138, .T. ) ;
#8 = CIRCLE ( 'NONE', #98, 5.750000000000000000 ) ;
#9 = ORIENTED_EDGE ( 'NONE', *, *, #66, .T. ) ;
#10 = CYLINDRICAL_SURFACE ( 'NONE', #114, 5.749999999999991118 ) ;
#11 = MANIFOLD_SOLID_BREP ( 'Corps-Déplacer/Copier1[1]', #127 ) ;
#12 = MANIFOLD_SOLID_BREP ( 'Corps-Déplacer/Copier1[2]', #166 ) ;
#13 = CALENDAR_DATE ( 2021, 15, 10 ) ;
#14 = AXIS2_PLACEMENT_3D ( 'NONE', #46, #122, #185 ) ;
#15 = EDGE_CURVE ( 'NONE', #38, #38, #45, .T. ) ;
#16 = UNCERTAINTY_MEASURE_WITH_UNIT (LENGTH_MEASURE( 1.000000000000000082E-05 ), #112, 'distance_accuracy_value', 'NONE');
#17 = DATE_AND_TIME ( #155, #142 ) ;
#18 = CYLINDRICAL_SURFACE ( 'NONE', #134, 5.749999999999997335 ) ;
#19 = COORDINATED_UNIVERSAL_TIME_OFFSET ( 1, 0, .AHEAD. ) ;
#20 = CARTESIAN_POINT ( 'NONE',  ( 1.640996229256272803E-13, -5.755839955992561430E-15, 47.00000000000000000 ) ) ;
#21 = LOCAL_TIME ( 15, 34, 17.00000000000000000, #19 ) ;
#22 =( NAMED_UNIT ( * ) SI_UNIT ( $, .STERADIAN. ) SOLID_ANGLE_UNIT ( ) );
#23 = APPROVAL_DATE_TIME ( #81, #94 ) ;
#24 = CC_DESIGN_PERSON_AND_ORGANIZATION_ASSIGNMENT ( #101, #178, ( #96 ) ) ;
#25 = DIRECTION ( 'NONE',  ( 0.0000000000000000000, 1.000000000000000000, 0.0000000000000000000 ) ) ;
#26 = DIRECTION ( 'NONE',  ( 0.0000000000000000000, 1.000000000000000000, 0.0000000000000000000 ) ) ;
#27 = EDGE_LOOP ( 'NONE', ( #9 ) ) ;
#28 = PRODUCT ( '29133', '29133', '', ( #165 ) ) ;
#29 = SECURITY_CLASSIFICATION ( '', '', #176 ) ;
#30 = ADVANCED_FACE ( 'NONE', ( #67, #111 ), #18, .T. ) ;
#31 = ORIENTED_EDGE ( 'NONE', *, *, #1, .F. ) ;
#32 = AXIS2_PLACEMENT_3D ( 'NONE', #148, #152, #196 ) ;
#33 = CC_DESIGN_DATE_AND_TIME_ASSIGNMENT ( #17, #174, ( #29 ) ) ;
#34 = SHAPE_DEFINITION_REPRESENTATION ( #87, #103 ) ;
#35 = CONICAL_SURFACE ( 'NONE', #49, 5.749999999999988454, 1.221730476396026388 ) ;
#36 = PERSON_AND_ORGANIZATION ( #93, #172 ) ;
#37 = CALENDAR_DATE ( 2021, 15, 10 ) ;
#38 = VERTEX_POINT ( 'NONE', #133 ) ;
#39 = FACE_OUTER_BOUND ( 'NONE', #201, .T. ) ;
#40 = AXIS2_PLACEMENT_3D ( 'NONE', #193, #5, #137 ) ;
#41 = CARTESIAN_POINT ( 'NONE',  ( 1.640996229256272803E-13, 5.749999999999988454, 47.00000000000000000 ) ) ;
#42 = CC_DESIGN_PERSON_AND_ORGANIZATION_ASSIGNMENT ( #132, #195, ( #96 ) ) ;
#43 = APPLICATION_PROTOCOL_DEFINITION ( 'international standard', 'config_control_design', 1994, #188 ) ;
#44 = APPROVAL_STATUS ( 'not_yet_approved' ) ;
#45 = CIRCLE ( 'NONE', #109, 4.750000000000000000 ) ;
#46 = CARTESIAN_POINT ( 'NONE',  ( 7.307072864800235280E-15, -2.562976148679377119E-16, 2.092828847030686834 ) ) ;
#47 = DIRECTION ( 'NONE',  ( -3.491481338843133355E-15, 1.224646799147353454E-16, -1.000000000000000000 ) ) ;
#48 = VERTEX_POINT ( 'NONE', #120 ) ;
#49 = AXIS2_PLACEMENT_3D ( 'NONE', #74, #4, #118 ) ;
#50 = EDGE_LOOP ( 'NONE', ( #150 ) ) ;
#51 = CC_DESIGN_SECURITY_CLASSIFICATION ( #29, ( #96 ) ) ;
#52 =( GEOMETRIC_REPRESENTATION_CONTEXT ( 3 ) GLOBAL_UNCERTAINTY_ASSIGNED_CONTEXT ( ( #16 ) ) GLOBAL_UNIT_ASSIGNED_CONTEXT ( ( #112, #163, #22 ) ) REPRESENTATION_CONTEXT ( 'NONE', 'WORKASPACE' ) );
#53 = APPROVAL_ROLE ( '' ) ;
#54 = DIRECTION ( 'NONE',  ( 4.275831445896959482E-31, 1.000000000000000000, 1.224646799147353454E-16 ) ) ;
#55 = PERSON_AND_ORGANIZATION ( #93, #172 ) ;
#56 = DATE_AND_TIME ( #13, #182 ) ;
#57 = PERSON_AND_ORGANIZATION ( #93, #172 ) ;
#58 = FACE_OUTER_BOUND ( 'NONE', #107, .T. ) ;
#59 = FACE_OUTER_BOUND ( 'NONE', #50, .T. ) ;
#60 = ORIENTED_EDGE ( 'NONE', *, *, #15, .T. ) ;
#61 = PERSON_AND_ORGANIZATION_ROLE ( 'design_owner' ) ;
#62 = CARTESIAN_POINT ( 'NONE',  ( 1.640996229256272803E-13, 4.311809375152828854E-32, 47.00000000000000000 ) ) ;
#63 = CARTESIAN_POINT ( 'NONE',  ( 7.307072864800238436E-15, 5.749999999999988454, 2.092828847030687722 ) ) ;
#64 = APPROVAL_PERSON_ORGANIZATION ( #145, #78, #123 ) ;
#65 = APPROVAL_STATUS ( 'not_yet_approved' ) ;
#66 = EDGE_CURVE ( 'NONE', #48, #48, #8, .T. ) ;
#67 = FACE_OUTER_BOUND ( 'NONE', #173, .T. ) ;
#68 = APPROVAL_STATUS ( 'not_yet_approved' ) ;
#69 = CC_DESIGN_PERSON_AND_ORGANIZATION_ASSIGNMENT ( #57, #192, ( #29 ) ) ;
#70 = PLANE ( 'NONE',  #149 ) ;
#71 = CC_DESIGN_PERSON_AND_ORGANIZATION_ASSIGNMENT ( #36, #159, ( #128 ) ) ;
#72 = CARTESIAN_POINT ( 'NONE',  ( 1.640996229256272803E-13, 5.749999999999988454, 47.00000000000000000 ) ) ;
#73 = AXIS2_PLACEMENT_3D ( 'NONE', #62, #86, #151 ) ;
#74 = CARTESIAN_POINT ( 'NONE',  ( 7.307072864800235280E-15, -2.562976148679377119E-16, 2.092828847030686834 ) ) ;
#75 = CARTESIAN_POINT ( 'NONE',  ( 0.0000000000000000000, 0.0000000000000000000, 0.0000000000000000000 ) ) ;
#76 = DIRECTION ( 'NONE',  ( 3.491481338843133355E-15, -1.224646799147353454E-16, 1.000000000000000000 ) ) ;
#77 = FACE_BOUND ( 'NONE', #113, .T. ) ;
#78 = APPROVAL ( #44, 'UNSPECIFIED' ) ;
#79 = AXIS2_PLACEMENT_3D ( 'NONE', #20, #167, #26 ) ;
#80 = LOCAL_TIME ( 15, 34, 17.00000000000000000, #3 ) ;
#81 = DATE_AND_TIME ( #83, #21 ) ;
#82 = CARTESIAN_POINT ( 'NONE',  ( 0.0000000000000000000, 0.0000000000000000000, 0.0000000000000000000 ) ) ;
#83 = CALENDAR_DATE ( 2021, 15, 10 ) ;
#84 = ORIENTED_EDGE ( 'NONE', *, *, #147, .F. ) ;
#85 = DIRECTION ( 'NONE',  ( -3.491481338843133355E-15, 1.224646799147353454E-16, -1.000000000000000000 ) ) ;
#86 = DIRECTION ( 'NONE',  ( 3.491481338843133355E-15, -1.224646799147353454E-16, 1.000000000000000000 ) ) ;
#87 = PRODUCT_DEFINITION_SHAPE ( 'NONE', 'NONE',  #128 ) ;
#88 = CARTESIAN_POINT ( 'NONE',  ( 3.281992458512545606E-13, -1.151167991198512286E-14, 94.00000000000000000 ) ) ;
#89 = CIRCLE ( 'NONE', #171, 5.749999999999994671 ) ;
#90 = CARTESIAN_POINT ( 'NONE',  ( 3.316907271900976814E-13, 3.561929483821896218E-32, 95.00000000000000000 ) ) ;
#91 = ADVANCED_FACE ( 'NONE', ( #39 ), #35, .T. ) ;
#92 = FACE_OUTER_BOUND ( 'NONE', #164, .T. ) ;
#93 = PERSON ( 'UNSPECIFIED', 'UNSPECIFIED', 'UNSPECIFIED', ('UNSPECIFIED'), ('UNSPECIFIED'), ('UNSPECIFIED') ) ;
#94 = APPROVAL ( #68, 'UNSPECIFIED' ) ;
#95 = APPROVAL ( #65, 'UNSPECIFIED' ) ;
#96 = PRODUCT_DEFINITION_FORMATION_WITH_SPECIFIED_SOURCE ( 'ANY', '', #28, .NOT_KNOWN. ) ;
#97 = ORIENTED_EDGE ( 'NONE', *, *, #15, .F. ) ;
#98 = AXIS2_PLACEMENT_3D ( 'NONE', #88, #85, #131 ) ;
#99 = CC_DESIGN_DATE_AND_TIME_ASSIGNMENT ( #135, #130, ( #128 ) ) ;
#100 = CONICAL_SURFACE ( 'NONE', #32, 4.750000000000000000, 0.7853981633974479459 ) ;
#101 = PERSON_AND_ORGANIZATION ( #93, #172 ) ;
#102 = COORDINATED_UNIVERSAL_TIME_OFFSET ( 1, 0, .AHEAD. ) ;
#103 = ADVANCED_BREP_SHAPE_REPRESENTATION ( '29133', ( #11, #12, #40 ), #52 ) ;
#104 = VERTEX_POINT ( 'NONE', #41 ) ;
#105 = APPROVAL_DATE_TIME ( #56, #78 ) ;
#106 = CARTESIAN_POINT ( 'NONE',  ( 1.640996229256272803E-13, 4.311809375152828854E-32, 47.00000000000000000 ) ) ;
#107 = EDGE_LOOP ( 'NONE', ( #170 ) ) ;
#108 = APPLICATION_PROTOCOL_DEFINITION ( 'international standard', 'config_control_design', 1994, #194 ) ;
#109 = AXIS2_PLACEMENT_3D ( 'NONE', #144, #47, #25 ) ;
#110 = FACE_OUTER_BOUND ( 'NONE', #121, .T. ) ;
#111 = FACE_OUTER_BOUND ( 'NONE', #27, .T. ) ;
#112 =( LENGTH_UNIT ( ) NAMED_UNIT ( * ) SI_UNIT ( .MILLI., .METRE. ) );
#113 = EDGE_LOOP ( 'NONE', ( #60 ) ) ;
#114 = AXIS2_PLACEMENT_3D ( 'NONE', #75, #184, #198 ) ;
#115 = APPROVAL_PERSON_ORGANIZATION ( #191, #95, #53 ) ;
#116 = DESIGN_CONTEXT ( 'detailed design', #194, 'design' ) ;
#117 = ADVANCED_FACE ( 'NONE', ( #161 ), #70, .F. ) ;
#118 = DIRECTION ( 'NONE',  ( -5.359109410468840862E-31, -1.000000000000000000, -1.508455196501574388E-16 ) ) ;
#119 = DIRECTION ( 'NONE',  ( -3.491481338843133355E-15, 1.224646799147353454E-16, -1.000000000000000000 ) ) ;
#120 = CARTESIAN_POINT ( 'NONE',  ( 3.281992458512545606E-13, 5.749999999999988454, 94.00000000000000000 ) ) ;
#121 = EDGE_LOOP ( 'NONE', ( #158 ) ) ;
#122 = DIRECTION ( 'NONE',  ( -3.491481338843133355E-15, 1.224646799147353454E-16, -1.000000000000000000 ) ) ;
#123 = APPROVAL_ROLE ( '' ) ;
#124 = EDGE_CURVE ( 'NONE', #202, #202, #154, .T. ) ;
#125 = ADVANCED_FACE ( 'NONE', ( #110 ), #200, .F. ) ;
#126 = APPROVAL_DATE_TIME ( #162, #95 ) ;
#127 = CLOSED_SHELL ( 'NONE', ( #125, #30, #136, #117 ) ) ;
#128 = PRODUCT_DEFINITION ( 'UNKNOWN', '', #96, #116 ) ;
#129 = DIRECTION ( 'NONE',  ( -3.491481338843133355E-15, 1.224646799147353454E-16, -1.000000000000000000 ) ) ;
#130 = DATE_TIME_ROLE ( 'creation_date' ) ;
#131 = DIRECTION ( 'NONE',  ( 0.0000000000000000000, 1.000000000000000000, 0.0000000000000000000 ) ) ;
#132 = PERSON_AND_ORGANIZATION ( #93, #172 ) ;
#133 = CARTESIAN_POINT ( 'NONE',  ( 3.316907271900976814E-13, 4.749999999999988454, 95.00000000000000000 ) ) ;
#134 = AXIS2_PLACEMENT_3D ( 'NONE', #82, #177, #180 ) ;
#135 = DATE_AND_TIME ( #37, #80 ) ;
#136 = ADVANCED_FACE ( 'NONE', ( #92, #77 ), #100, .T. ) ;
#137 = DIRECTION ( 'NONE',  ( 1.000000000000000000, 0.0000000000000000000, 0.0000000000000000000 ) ) ;
#138 = EDGE_LOOP ( 'NONE', ( #84 ) ) ;
#139 = EDGE_LOOP ( 'NONE', ( #97 ) ) ;
#140 = VERTEX_POINT ( 'NONE', #72 ) ;
#141 = APPROVAL_PERSON_ORGANIZATION ( #55, #94, #143 ) ;
#142 = LOCAL_TIME ( 15, 34, 17.00000000000000000, #6 ) ;
#143 = APPROVAL_ROLE ( '' ) ;
#144 = CARTESIAN_POINT ( 'NONE',  ( 3.316907271900976814E-13, -1.163414459189985801E-14, 95.00000000000000000 ) ) ;
#145 = PERSON_AND_ORGANIZATION ( #93, #172 ) ;
#146 = PRODUCT_RELATED_PRODUCT_CATEGORY ( 'detail', '', ( #28 ) ) ;
#147 = EDGE_CURVE ( 'NONE', #104, #104, #89, .T. ) ;
#148 = CARTESIAN_POINT ( 'NONE',  ( 3.316907271900976814E-13, -1.163414459189985801E-14, 95.00000000000000000 ) ) ;
#149 = AXIS2_PLACEMENT_3D ( 'NONE', #90, #129, #54 ) ;
#150 = ORIENTED_EDGE ( 'NONE', *, *, #124, .F. ) ;
#151 = DIRECTION ( 'NONE',  ( -4.275831445896959482E-31, -1.000000000000000000, -1.224646799147353454E-16 ) ) ;
#152 = DIRECTION ( 'NONE',  ( -3.491481338843133355E-15, 1.224646799147353454E-16, -1.000000000000000000 ) ) ;
#153 = PERSON_AND_ORGANIZATION ( #93, #172 ) ;
#154 = CIRCLE ( 'NONE', #14, 5.749999999999988454 ) ;
#155 = CALENDAR_DATE ( 2021, 15, 10 ) ;
#156 = ADVANCED_FACE ( 'NONE', ( #59, #58 ), #10, .T. ) ;
#157 = CALENDAR_DATE ( 2021, 15, 10 ) ;
#158 = ORIENTED_EDGE ( 'NONE', *, *, #1, .T. ) ;
#159 = PERSON_AND_ORGANIZATION_ROLE ( 'creator' ) ;
#160 = CC_DESIGN_APPROVAL ( #78, ( #128 ) ) ;
#161 = FACE_OUTER_BOUND ( 'NONE', #139, .T. ) ;
#162 = DATE_AND_TIME ( #157, #203 ) ;
#163 =( NAMED_UNIT ( * ) PLANE_ANGLE_UNIT ( ) SI_UNIT ( $, .RADIAN. ) );
#164 = EDGE_LOOP ( 'NONE', ( #186 ) ) ;
#165 = MECHANICAL_CONTEXT ( 'NONE', #188, 'mechanical' ) ;
#166 = CLOSED_SHELL ( 'NONE', ( #91, #156, #199 ) ) ;
#167 = DIRECTION ( 'NONE',  ( -3.491481338843133355E-15, 1.224646799147353454E-16, -1.000000000000000000 ) ) ;
#168 = DIRECTION ( 'NONE',  ( -4.275831445896959482E-31, -1.000000000000000000, -1.224646799147353454E-16 ) ) ;
#169 = CC_DESIGN_PERSON_AND_ORGANIZATION_ASSIGNMENT ( #153, #61, ( #28 ) ) ;
#170 = ORIENTED_EDGE ( 'NONE', *, *, #147, .T. ) ;
#171 = AXIS2_PLACEMENT_3D ( 'NONE', #179, #119, #183 ) ;
#172 = ORGANIZATION ( 'UNSPECIFIED', 'UNSPECIFIED', '' ) ;
#173 = EDGE_LOOP ( 'NONE', ( #31 ) ) ;
#174 = DATE_TIME_ROLE ( 'classification_date' ) ;
#175 = CIRCLE ( 'NONE', #79, 5.749999999999994671 ) ;
#176 = SECURITY_CLASSIFICATION_LEVEL ( 'unclassified' ) ;
#177 = DIRECTION ( 'NONE',  ( -3.491481338843133355E-15, 1.224646799147353454E-16, -1.000000000000000000 ) ) ;
#178 = PERSON_AND_ORGANIZATION_ROLE ( 'design_supplier' ) ;
#179 = CARTESIAN_POINT ( 'NONE',  ( 1.640996229256272803E-13, -5.755839955992561430E-15, 47.00000000000000000 ) ) ;
#180 = DIRECTION ( 'NONE',  ( 4.275831445896959482E-31, 1.000000000000000000, 1.224646799147353454E-16 ) ) ;
#181 = PLANE ( 'NONE',  #189 ) ;
#182 = LOCAL_TIME ( 15, 34, 17.00000000000000000, #187 ) ;
#183 = DIRECTION ( 'NONE',  ( 0.0000000000000000000, 1.000000000000000000, 0.0000000000000000000 ) ) ;
#184 = DIRECTION ( 'NONE',  ( -3.491481338843133355E-15, 1.224646799147353454E-16, -1.000000000000000000 ) ) ;
#185 = DIRECTION ( 'NONE',  ( 5.359109410468840862E-31, 1.000000000000000000, 1.508455196501574388E-16 ) ) ;
#186 = ORIENTED_EDGE ( 'NONE', *, *, #66, .F. ) ;
#187 = COORDINATED_UNIVERSAL_TIME_OFFSET ( 1, 0, .AHEAD. ) ;
#188 = APPLICATION_CONTEXT ( 'configuration controlled 3d designs of mechanical parts and assemblies' ) ;
#189 = AXIS2_PLACEMENT_3D ( 'NONE', #106, #76, #168 ) ;
#190 = CC_DESIGN_APPROVAL ( #94, ( #29 ) ) ;
#191 = PERSON_AND_ORGANIZATION ( #93, #172 ) ;
#192 = PERSON_AND_ORGANIZATION_ROLE ( 'classification_officer' ) ;
#193 = CARTESIAN_POINT ( 'NONE',  ( 0.0000000000000000000, 0.0000000000000000000, 0.0000000000000000000 ) ) ;
#194 = APPLICATION_CONTEXT ( 'configuration controlled 3d designs of mechanical parts and assemblies' ) ;
#195 = PERSON_AND_ORGANIZATION_ROLE ( 'creator' ) ;
#196 = DIRECTION ( 'NONE',  ( 0.0000000000000000000, 1.000000000000000000, 0.0000000000000000000 ) ) ;
#197 = ORIENTED_EDGE ( 'NONE', *, *, #124, .T. ) ;
#198 = DIRECTION ( 'NONE',  ( 4.275831445896959482E-31, 1.000000000000000000, 1.224646799147353454E-16 ) ) ;
#199 = ADVANCED_FACE ( 'NONE', ( #7 ), #181, .T. ) ;
#200 = PLANE ( 'NONE',  #73 ) ;
#201 = EDGE_LOOP ( 'NONE', ( #197 ) ) ;
#202 = VERTEX_POINT ( 'NONE', #63 ) ;
#203 = LOCAL_TIME ( 15, 34, 17.00000000000000000, #102 ) ;
ENDSEC;
END-ISO-10303-21;
