ISO-10303-21;
HEADER;
FILE_DESCRIPTION (( 'STEP AP203' ),
    '1' );
FILE_NAME ('29132.step',
    '2021-10-15T13:34:16',
    ( '' ),
    ( '' ),
    'SwSTEP 2.0',
    'SolidWorks 2019',
    '' );
FILE_SCHEMA (( 'CONFIG_CONTROL_DESIGN' ));
ENDSEC;

DATA;
#1 = DIRECTION ( 'NONE',  ( 4.275831445896959482E-31, 1.000000000000000000, 1.224646799147353207E-16 ) ) ;
#2 = FACE_OUTER_BOUND ( 'NONE', #13, .T. ) ;
#3 = CYLINDRICAL_SURFACE ( 'NONE', #194, 5.499999999999998224 ) ;
#4 = CC_DESIGN_DATE_AND_TIME_ASSIGNMENT ( #134, #193, ( #98 ) ) ;
#5 = PERSON_AND_ORGANIZATION ( #107, #116 ) ;
#6 = SECURITY_CLASSIFICATION_LEVEL ( 'unclassified' ) ;
#7 = PERSON_AND_ORGANIZATION ( #107, #116 ) ;
#8 = CLOSED_SHELL ( 'NONE', ( #169, #198, #11, #152 ) ) ;
#9 = CALENDAR_DATE ( 2021, 15, 10 ) ;
#10 = DATE_AND_TIME ( #101, #80 ) ;
#11 = ADVANCED_FACE ( 'NONE', ( #123, #90 ), #15, .T. ) ;
#12 = LOCAL_TIME ( 15, 34, 16.00000000000000000, #184 ) ;
#13 = EDGE_LOOP ( 'NONE', ( #73 ) ) ;
#14 = ORIENTED_EDGE ( 'NONE', *, *, #113, .T. ) ;
#15 = CONICAL_SURFACE ( 'NONE', #122, 4.500000000000000888, 0.7853981633974479459 ) ;
#16 = DIRECTION ( 'NONE',  ( 0.0000000000000000000, 1.000000000000000000, 0.0000000000000000000 ) ) ;
#17 = CARTESIAN_POINT ( 'NONE',  ( 6.989374044591530462E-15, -2.451542403084621914E-16, 2.001836288464135638 ) ) ;
#18 = FACE_OUTER_BOUND ( 'NONE', #141, .T. ) ;
#19 = DIRECTION ( 'NONE',  ( 4.275831445896959482E-31, 1.000000000000000000, 1.224646799147353454E-16 ) ) ;
#20 = DIRECTION ( 'NONE',  ( -4.275831445896959482E-31, -1.000000000000000000, -1.224646799147353454E-16 ) ) ;
#21 = FACE_OUTER_BOUND ( 'NONE', #139, .T. ) ;
#22 = DATE_TIME_ROLE ( 'creation_date' ) ;
#23 = LOCAL_TIME ( 15, 34, 16.00000000000000000, #102 ) ;
#24 = PRODUCT_DEFINITION ( 'UNKNOWN', '', #138, #172 ) ;
#25 = CIRCLE ( 'NONE', #69, 5.499999999999995559 ) ;
#26 = PERSON_AND_ORGANIZATION_ROLE ( 'classification_officer' ) ;
#27 = AXIS2_PLACEMENT_3D ( 'NONE', #112, #126, #144 ) ;
#28 = EDGE_LOOP ( 'NONE', ( #199 ) ) ;
#29 = CARTESIAN_POINT ( 'NONE',  ( 3.281992458512545606E-13, -1.151167991198512286E-14, 94.00000000000000000 ) ) ;
#30 = DIRECTION ( 'NONE',  ( -3.491481338843133355E-15, 1.224646799147353454E-16, -1.000000000000000000 ) ) ;
#31 = AXIS2_PLACEMENT_3D ( 'NONE', #143, #78, #146 ) ;
#32 = VERTEX_POINT ( 'NONE', #163 ) ;
#33 = CC_DESIGN_PERSON_AND_ORGANIZATION_ASSIGNMENT ( #65, #26, ( #98 ) ) ;
#34 = DIRECTION ( 'NONE',  ( 3.491481338843133355E-15, -1.224646799147353454E-16, 1.000000000000000000 ) ) ;
#35 = CARTESIAN_POINT ( 'NONE',  ( 0.0000000000000000000, 0.0000000000000000000, 0.0000000000000000000 ) ) ;
#36 = CYLINDRICAL_SURFACE ( 'NONE', #53, 5.499999999999992895 ) ;
#37 = PERSON_AND_ORGANIZATION_ROLE ( 'design_owner' ) ;
#38 = CC_DESIGN_APPROVAL ( #87, ( #98 ) ) ;
#39 = APPROVAL_STATUS ( 'not_yet_approved' ) ;
#40 = APPROVAL ( #39, 'UNSPECIFIED' ) ;
#41 = APPROVAL_DATE_TIME ( #10, #40 ) ;
#42 = AXIS2_PLACEMENT_3D ( 'NONE', #182, #50, #67 ) ;
#43 = CC_DESIGN_PERSON_AND_ORGANIZATION_ASSIGNMENT ( #5, #37, ( #165 ) ) ;
#44 = ORIENTED_EDGE ( 'NONE', *, *, #118, .T. ) ;
#45 = CARTESIAN_POINT ( 'NONE',  ( 3.316907271900976814E-13, -1.163414459189985801E-14, 95.00000000000000000 ) ) ;
#46 = APPLICATION_CONTEXT ( 'configuration controlled 3d designs of mechanical parts and assemblies' ) ;
#47 = APPROVAL_PERSON_ORGANIZATION ( #99, #128, #166 ) ;
#48 = CARTESIAN_POINT ( 'NONE',  ( 1.640996229256272803E-13, 4.124339402320098021E-32, 47.00000000000000000 ) ) ;
#49 = VERTEX_POINT ( 'NONE', #191 ) ;
#50 = DIRECTION ( 'NONE',  ( 0.0000000000000000000, 0.0000000000000000000, 1.000000000000000000 ) ) ;
#51 = PERSON_AND_ORGANIZATION_ROLE ( 'creator' ) ;
#52 = COORDINATED_UNIVERSAL_TIME_OFFSET ( 1, 0, .AHEAD. ) ;
#53 = AXIS2_PLACEMENT_3D ( 'NONE', #111, #149, #19 ) ;
#54 = DIRECTION ( 'NONE',  ( -3.491481338843133355E-15, 1.224646799147353454E-16, -1.000000000000000000 ) ) ;
#55 = CIRCLE ( 'NONE', #170, 4.500000000000000888 ) ;
#56 = EDGE_LOOP ( 'NONE', ( #44 ) ) ;
#57 = CC_DESIGN_PERSON_AND_ORGANIZATION_ASSIGNMENT ( #171, #51, ( #138 ) ) ;
#58 = CC_DESIGN_SECURITY_CLASSIFICATION ( #98, ( #138 ) ) ;
#59 = CARTESIAN_POINT ( 'NONE',  ( 3.316907271900976814E-13, 4.499999999999989342, 95.00000000000000000 ) ) ;
#60 = CARTESIAN_POINT ( 'NONE',  ( 1.640996229256272803E-13, 4.124339402320098021E-32, 47.00000000000000000 ) ) ;
#61 = FACE_OUTER_BOUND ( 'NONE', #201, .T. ) ;
#62 = AXIS2_PLACEMENT_3D ( 'NONE', #17, #34, #177 ) ;
#63 = DIRECTION ( 'NONE',  ( -3.491481338843133355E-15, 1.224646799147353454E-16, -1.000000000000000000 ) ) ;
#64 = PERSON_AND_ORGANIZATION ( #107, #116 ) ;
#65 = PERSON_AND_ORGANIZATION ( #107, #116 ) ;
#66 = CALENDAR_DATE ( 2021, 15, 10 ) ;
#67 = DIRECTION ( 'NONE',  ( 1.000000000000000000, 0.0000000000000000000, 0.0000000000000000000 ) ) ;
#68 = PERSON_AND_ORGANIZATION ( #107, #116 ) ;
#69 = AXIS2_PLACEMENT_3D ( 'NONE', #129, #190, #91 ) ;
#70 = EDGE_LOOP ( 'NONE', ( #154 ) ) ;
#71 = CARTESIAN_POINT ( 'NONE',  ( 6.989374044591530462E-15, -2.451542403084621914E-16, 2.001836288464135638 ) ) ;
#72 = ORIENTED_EDGE ( 'NONE', *, *, #158, .T. ) ;
#73 = ORIENTED_EDGE ( 'NONE', *, *, #189, .F. ) ;
#74 = DIRECTION ( 'NONE',  ( -3.491481338843133355E-15, 1.224646799147353454E-16, -1.000000000000000000 ) ) ;
#75 = MANIFOLD_SOLID_BREP ( 'Corps-Déplacer/Copier1[2]', #120 ) ;
#76 = CARTESIAN_POINT ( 'NONE',  ( 3.281992458512545606E-13, 5.499999999999989342, 94.00000000000000000 ) ) ;
#77 = MANIFOLD_SOLID_BREP ( 'Corps-Déplacer/Copier1[1]', #8 ) ;
#78 = DIRECTION ( 'NONE',  ( -3.491481338843133355E-15, 1.224646799147353454E-16, -1.000000000000000000 ) ) ;
#79 = CC_DESIGN_PERSON_AND_ORGANIZATION_ASSIGNMENT ( #7, #100, ( #138 ) ) ;
#80 = LOCAL_TIME ( 15, 34, 16.00000000000000000, #85 ) ;
#81 = CALENDAR_DATE ( 2021, 15, 10 ) ;
#82 = ADVANCED_BREP_SHAPE_REPRESENTATION ( '29132', ( #77, #75, #42 ), #145 ) ;
#83 = APPLICATION_PROTOCOL_DEFINITION ( 'international standard', 'config_control_design', 1994, #148 ) ;
#84 = AXIS2_PLACEMENT_3D ( 'NONE', #60, #188, #20 ) ;
#85 = COORDINATED_UNIVERSAL_TIME_OFFSET ( 1, 0, .AHEAD. ) ;
#86 = EDGE_LOOP ( 'NONE', ( #121 ) ) ;
#87 = APPROVAL ( #151, 'UNSPECIFIED' ) ;
#88 = ORIENTED_EDGE ( 'NONE', *, *, #94, .F. ) ;
#89 = APPROVAL_PERSON_ORGANIZATION ( #64, #40, #97 ) ;
#90 = FACE_BOUND ( 'NONE', #56, .T. ) ;
#91 = DIRECTION ( 'NONE',  ( 0.0000000000000000000, 1.000000000000000000, 0.0000000000000000000 ) ) ;
#92 = FACE_OUTER_BOUND ( 'NONE', #125, .T. ) ;
#93 = DIRECTION ( 'NONE',  ( 0.0000000000000000000, 1.000000000000000000, 0.0000000000000000000 ) ) ;
#94 = EDGE_CURVE ( 'NONE', #49, #49, #203, .T. ) ;
#95 = DIRECTION ( 'NONE',  ( -4.275831445896959482E-31, -1.000000000000000000, -1.224646799147353454E-16 ) ) ;
#96 = VERTEX_POINT ( 'NONE', #76 ) ;
#97 = APPROVAL_ROLE ( '' ) ;
#98 = SECURITY_CLASSIFICATION ( '', '', #6 ) ;
#99 = PERSON_AND_ORGANIZATION ( #107, #116 ) ;
#100 = PERSON_AND_ORGANIZATION_ROLE ( 'design_supplier' ) ;
#101 = CALENDAR_DATE ( 2021, 15, 10 ) ;
#102 = COORDINATED_UNIVERSAL_TIME_OFFSET ( 1, 0, .AHEAD. ) ;
#103 = UNCERTAINTY_MEASURE_WITH_UNIT (LENGTH_MEASURE( 1.000000000000000082E-05 ), #178, 'distance_accuracy_value', 'NONE');
#104 = CC_DESIGN_APPROVAL ( #128, ( #138 ) ) ;
#105 = EDGE_LOOP ( 'NONE', ( #72 ) ) ;
#106 = CC_DESIGN_DATE_AND_TIME_ASSIGNMENT ( #137, #22, ( #24 ) ) ;
#107 = PERSON ( 'UNSPECIFIED', 'UNSPECIFIED', 'UNSPECIFIED', ('UNSPECIFIED'), ('UNSPECIFIED'), ('UNSPECIFIED') ) ;
#108 = PLANE ( 'NONE',  #84 ) ;
#109 = CC_DESIGN_APPROVAL ( #40, ( #24 ) ) ;
#110 = PLANE ( 'NONE',  #31 ) ;
#111 = CARTESIAN_POINT ( 'NONE',  ( 0.0000000000000000000, 0.0000000000000000000, 0.0000000000000000000 ) ) ;
#112 = CARTESIAN_POINT ( 'NONE',  ( 1.640996229256272803E-13, -5.755839955992561430E-15, 47.00000000000000000 ) ) ;
#113 = EDGE_CURVE ( 'NONE', #96, #96, #161, .T. ) ;
#114 = PERSON_AND_ORGANIZATION_ROLE ( 'creator' ) ;
#115 = APPROVAL_DATE_TIME ( #136, #87 ) ;
#116 = ORGANIZATION ( 'UNSPECIFIED', 'UNSPECIFIED', '' ) ;
#117 = APPROVAL_STATUS ( 'not_yet_approved' ) ;
#118 = EDGE_CURVE ( 'NONE', #162, #162, #55, .T. ) ;
#119 = PERSON_AND_ORGANIZATION ( #107, #116 ) ;
#120 = CLOSED_SHELL ( 'NONE', ( #135, #140, #167 ) ) ;
#121 = ORIENTED_EDGE ( 'NONE', *, *, #113, .F. ) ;
#122 = AXIS2_PLACEMENT_3D ( 'NONE', #45, #155, #173 ) ;
#123 = FACE_OUTER_BOUND ( 'NONE', #86, .T. ) ;
#124 = ORIENTED_EDGE ( 'NONE', *, *, #189, .T. ) ;
#125 = EDGE_LOOP ( 'NONE', ( #185 ) ) ;
#126 = DIRECTION ( 'NONE',  ( -3.491481338843133355E-15, 1.224646799147353454E-16, -1.000000000000000000 ) ) ;
#127 = LOCAL_TIME ( 15, 34, 16.00000000000000000, #52 ) ;
#128 = APPROVAL ( #117, 'UNSPECIFIED' ) ;
#129 = CARTESIAN_POINT ( 'NONE',  ( 1.640996229256272803E-13, -5.755839955992561430E-15, 47.00000000000000000 ) ) ;
#130 = FACE_OUTER_BOUND ( 'NONE', #70, .T. ) ;
#131 = PLANE ( 'NONE',  #200 ) ;
#132 = APPROVAL_ROLE ( '' ) ;
#133 = PRODUCT_DEFINITION_SHAPE ( 'NONE', 'NONE',  #24 ) ;
#134 = DATE_AND_TIME ( #81, #12 ) ;
#135 = ADVANCED_FACE ( 'NONE', ( #202 ), #157, .T. ) ;
#136 = DATE_AND_TIME ( #66, #127 ) ;
#137 = DATE_AND_TIME ( #9, #23 ) ;
#138 = PRODUCT_DEFINITION_FORMATION_WITH_SPECIFIED_SOURCE ( 'ANY', '', #165, .NOT_KNOWN. ) ;
#139 = EDGE_LOOP ( 'NONE', ( #124 ) ) ;
#140 = ADVANCED_FACE ( 'NONE', ( #61, #21 ), #36, .T. ) ;
#141 = EDGE_LOOP ( 'NONE', ( #14 ) ) ;
#142 = CARTESIAN_POINT ( 'NONE',  ( 3.316907271900976814E-13, -1.163414459189985801E-14, 95.00000000000000000 ) ) ;
#143 = CARTESIAN_POINT ( 'NONE',  ( 3.316907271900976814E-13, 3.374459510989164838E-32, 95.00000000000000000 ) ) ;
#144 = DIRECTION ( 'NONE',  ( 0.0000000000000000000, 1.000000000000000000, 0.0000000000000000000 ) ) ;
#145 =( GEOMETRIC_REPRESENTATION_CONTEXT ( 3 ) GLOBAL_UNCERTAINTY_ASSIGNED_CONTEXT ( ( #103 ) ) GLOBAL_UNIT_ASSIGNED_CONTEXT ( ( #178, #147, #181 ) ) REPRESENTATION_CONTEXT ( 'NONE', 'WORKASPACE' ) );
#146 = DIRECTION ( 'NONE',  ( 4.275831445896959482E-31, 1.000000000000000000, 1.224646799147353454E-16 ) ) ;
#147 =( NAMED_UNIT ( * ) PLANE_ANGLE_UNIT ( ) SI_UNIT ( $, .RADIAN. ) );
#148 = APPLICATION_CONTEXT ( 'configuration controlled 3d designs of mechanical parts and assemblies' ) ;
#149 = DIRECTION ( 'NONE',  ( -3.491481338843133355E-15, 1.224646799147353454E-16, -1.000000000000000000 ) ) ;
#150 = COORDINATED_UNIVERSAL_TIME_OFFSET ( 1, 0, .AHEAD. ) ;
#151 = APPROVAL_STATUS ( 'not_yet_approved' ) ;
#152 = ADVANCED_FACE ( 'NONE', ( #130 ), #110, .F. ) ;
#153 = APPROVAL_PERSON_ORGANIZATION ( #119, #87, #132 ) ;
#154 = ORIENTED_EDGE ( 'NONE', *, *, #118, .F. ) ;
#155 = DIRECTION ( 'NONE',  ( -3.491481338843133355E-15, 1.224646799147353454E-16, -1.000000000000000000 ) ) ;
#156 = PRODUCT_RELATED_PRODUCT_CATEGORY ( 'detail', '', ( #165 ) ) ;
#157 = CONICAL_SURFACE ( 'NONE', #62, 5.499999999999989342, 1.221730476396026388 ) ;
#158 = EDGE_CURVE ( 'NONE', #32, #32, #179, .T. ) ;
#159 = VERTEX_POINT ( 'NONE', #175 ) ;
#160 = FACE_OUTER_BOUND ( 'NONE', #105, .T. ) ;
#161 = CIRCLE ( 'NONE', #174, 5.500000000000000888 ) ;
#162 = VERTEX_POINT ( 'NONE', #59 ) ;
#163 = CARTESIAN_POINT ( 'NONE',  ( 1.640996229256272803E-13, 5.499999999999989342, 47.00000000000000000 ) ) ;
#164 = APPLICATION_PROTOCOL_DEFINITION ( 'international standard', 'config_control_design', 1994, #46 ) ;
#165 = PRODUCT ( '29132', '29132', '', ( #183 ) ) ;
#166 = APPROVAL_ROLE ( '' ) ;
#167 = ADVANCED_FACE ( 'NONE', ( #2 ), #108, .T. ) ;
#168 = APPROVAL_DATE_TIME ( #192, #128 ) ;
#169 = ADVANCED_FACE ( 'NONE', ( #160 ), #131, .F. ) ;
#170 = AXIS2_PLACEMENT_3D ( 'NONE', #142, #74, #93 ) ;
#171 = PERSON_AND_ORGANIZATION ( #107, #116 ) ;
#172 = DESIGN_CONTEXT ( 'detailed design', #148, 'design' ) ;
#173 = DIRECTION ( 'NONE',  ( 0.0000000000000000000, 1.000000000000000000, 0.0000000000000000000 ) ) ;
#174 = AXIS2_PLACEMENT_3D ( 'NONE', #29, #30, #16 ) ;
#175 = CARTESIAN_POINT ( 'NONE',  ( 1.640996229256272803E-13, 5.499999999999989342, 47.00000000000000000 ) ) ;
#176 = DIRECTION ( 'NONE',  ( 3.491481338843133355E-15, -1.224646799147353454E-16, 1.000000000000000000 ) ) ;
#177 = DIRECTION ( 'NONE',  ( -5.602705292762879162E-31, -1.000000000000000000, -1.577021341797100518E-16 ) ) ;
#178 =( LENGTH_UNIT ( ) NAMED_UNIT ( * ) SI_UNIT ( .MILLI., .METRE. ) );
#179 = CIRCLE ( 'NONE', #27, 5.499999999999995559 ) ;
#180 = CC_DESIGN_PERSON_AND_ORGANIZATION_ASSIGNMENT ( #68, #114, ( #24 ) ) ;
#181 =( NAMED_UNIT ( * ) SI_UNIT ( $, .STERADIAN. ) SOLID_ANGLE_UNIT ( ) );
#182 = CARTESIAN_POINT ( 'NONE',  ( 0.0000000000000000000, 0.0000000000000000000, 0.0000000000000000000 ) ) ;
#183 = MECHANICAL_CONTEXT ( 'NONE', #46, 'mechanical' ) ;
#184 = COORDINATED_UNIVERSAL_TIME_OFFSET ( 1, 0, .AHEAD. ) ;
#185 = ORIENTED_EDGE ( 'NONE', *, *, #158, .F. ) ;
#186 = DIRECTION ( 'NONE',  ( 5.602705292762879162E-31, 1.000000000000000000, 1.577021341797100518E-16 ) ) ;
#187 = LOCAL_TIME ( 15, 34, 16.00000000000000000, #150 ) ;
#188 = DIRECTION ( 'NONE',  ( 3.491481338843133355E-15, -1.224646799147353454E-16, 1.000000000000000000 ) ) ;
#189 = EDGE_CURVE ( 'NONE', #159, #159, #25, .T. ) ;
#190 = DIRECTION ( 'NONE',  ( -3.491481338843133355E-15, 1.224646799147353454E-16, -1.000000000000000000 ) ) ;
#191 = CARTESIAN_POINT ( 'NONE',  ( 6.989374044591532828E-15, 5.499999999999989342, 2.001836288464136526 ) ) ;
#192 = DATE_AND_TIME ( #196, #187 ) ;
#193 = DATE_TIME_ROLE ( 'classification_date' ) ;
#194 = AXIS2_PLACEMENT_3D ( 'NONE', #35, #63, #1 ) ;
#195 = SHAPE_DEFINITION_REPRESENTATION ( #133, #82 ) ;
#196 = CALENDAR_DATE ( 2021, 15, 10 ) ;
#197 = AXIS2_PLACEMENT_3D ( 'NONE', #71, #54, #186 ) ;
#198 = ADVANCED_FACE ( 'NONE', ( #92, #18 ), #3, .T. ) ;
#199 = ORIENTED_EDGE ( 'NONE', *, *, #94, .T. ) ;
#200 = AXIS2_PLACEMENT_3D ( 'NONE', #48, #176, #95 ) ;
#201 = EDGE_LOOP ( 'NONE', ( #88 ) ) ;
#202 = FACE_OUTER_BOUND ( 'NONE', #28, .T. ) ;
#203 = CIRCLE ( 'NONE', #197, 5.499999999999989342 ) ;
ENDSEC;
END-ISO-10303-21;
