ISO-10303-21;
HEADER;
FILE_DESCRIPTION (( 'STEP AP203' ),
    '1' );
FILE_NAME ('29131.step',
    '2021-10-15T13:34:16',
    ( '' ),
    ( '' ),
    'SwSTEP 2.0',
    'SolidWorks 2019',
    '' );
FILE_SCHEMA (( 'CONFIG_CONTROL_DESIGN' ));
ENDSEC;

DATA;
#1 = ORIENTED_EDGE ( 'NONE', *, *, #56, .F. ) ;
#2 = CC_DESIGN_PERSON_AND_ORGANIZATION_ASSIGNMENT ( #126, #63, ( #155 ) ) ;
#3 = ORIENTED_EDGE ( 'NONE', *, *, #83, .T. ) ;
#4 = CIRCLE ( 'NONE', #21, 5.249999999999995559 ) ;
#5 = CARTESIAN_POINT ( 'NONE',  ( 1.501336975702547217E-13, -5.265981236333618470E-15, 43.00000000000000000 ) ) ;
#6 = ADVANCED_FACE ( 'NONE', ( #82 ), #103, .F. ) ;
#7 =( LENGTH_UNIT ( ) NAMED_UNIT ( * ) SI_UNIT ( .MILLI., .METRE. ) );
#8 = VERTEX_POINT ( 'NONE', #88 ) ;
#9 = DIRECTION ( 'NONE',  ( 0.0000000000000000000, 1.000000000000000000, 0.0000000000000000000 ) ) ;
#10 = DIRECTION ( 'NONE',  ( 4.402125587170832814E-31, 1.000000000000000000, 1.239088197126293036E-16 ) ) ;
#11 = CC_DESIGN_PERSON_AND_ORGANIZATION_ASSIGNMENT ( #165, #17, ( #120 ) ) ;
#12 = DATE_AND_TIME ( #79, #203 ) ;
#13 = APPLICATION_CONTEXT ( 'configuration controlled 3d designs of mechanical parts and assemblies' ) ;
#14 = AXIS2_PLACEMENT_3D ( 'NONE', #137, #30, #159 ) ;
#15 = PERSON_AND_ORGANIZATION ( #89, #143 ) ;
#16 = PERSON_AND_ORGANIZATION_ROLE ( 'creator' ) ;
#17 = PERSON_AND_ORGANIZATION_ROLE ( 'design_supplier' ) ;
#18 = DATE_AND_TIME ( #97, #70 ) ;
#19 = ORIENTED_EDGE ( 'NONE', *, *, #96, .T. ) ;
#20 = ADVANCED_FACE ( 'NONE', ( #55, #185 ), #73, .T. ) ;
#21 = AXIS2_PLACEMENT_3D ( 'NONE', #5, #189, #140 ) ;
#22 = EDGE_LOOP ( 'NONE', ( #86 ) ) ;
#23 =( GEOMETRIC_REPRESENTATION_CONTEXT ( 3 ) GLOBAL_UNCERTAINTY_ASSIGNED_CONTEXT ( ( #166 ) ) GLOBAL_UNIT_ASSIGNED_CONTEXT ( ( #7, #136, #91 ) ) REPRESENTATION_CONTEXT ( 'NONE', 'WORKASPACE' ) );
#24 = CC_DESIGN_DATE_AND_TIME_ASSIGNMENT ( #12, #37, ( #160 ) ) ;
#25 = DIRECTION ( 'NONE',  ( 3.491481338843133355E-15, -1.224646799147353207E-16, 1.000000000000000000 ) ) ;
#26 = APPROVAL_PERSON_ORGANIZATION ( #15, #178, #199 ) ;
#27 = VERTEX_POINT ( 'NONE', #29 ) ;
#28 = DIRECTION ( 'NONE',  ( 0.0000000000000000000, 1.000000000000000000, 0.0000000000000000000 ) ) ;
#29 = CARTESIAN_POINT ( 'NONE',  ( 3.107418391570388560E-13, 4.249999999999990230, 89.00000000000000000 ) ) ;
#30 = DIRECTION ( 'NONE',  ( -3.491481338843133355E-15, 1.224646799147353207E-16, -1.000000000000000000 ) ) ;
#31 = FACE_OUTER_BOUND ( 'NONE', #67, .T. ) ;
#32 = DATE_AND_TIME ( #150, #110 ) ;
#33 = DESIGN_CONTEXT ( 'detailed design', #13, 'design' ) ;
#34 = APPROVAL_STATUS ( 'not_yet_approved' ) ;
#35 = PERSON_AND_ORGANIZATION ( #89, #143 ) ;
#36 = COORDINATED_UNIVERSAL_TIME_OFFSET ( 1, 0, .AHEAD. ) ;
#37 = DATE_TIME_ROLE ( 'classification_date' ) ;
#38 = EDGE_CURVE ( 'NONE', #148, #148, #184, .T. ) ;
#39 = CARTESIAN_POINT ( 'NONE',  ( 3.072503578181957353E-13, -1.077689183249670724E-14, 88.00000000000000000 ) ) ;
#40 = CONICAL_SURFACE ( 'NONE', #80, 5.249999999999990230, 1.221730476396026388 ) ;
#41 = ORIENTED_EDGE ( 'NONE', *, *, #38, .F. ) ;
#42 = EDGE_LOOP ( 'NONE', ( #102 ) ) ;
#43 = ORIENTED_EDGE ( 'NONE', *, *, #96, .F. ) ;
#44 = DIRECTION ( 'NONE',  ( -3.491481338843133355E-15, 1.224646799147353207E-16, -1.000000000000000000 ) ) ;
#45 = APPROVAL ( #182, 'UNSPECIFIED' ) ;
#46 = AXIS2_PLACEMENT_3D ( 'NONE', #131, #25, #170 ) ;
#47 = CARTESIAN_POINT ( 'NONE',  ( 3.107418391570388560E-13, 3.186989538156431816E-32, 89.00000000000000000 ) ) ;
#48 = DIRECTION ( 'NONE',  ( -3.491481338843133355E-15, 1.224646799147353207E-16, -1.000000000000000000 ) ) ;
#49 = DIRECTION ( 'NONE',  ( -3.491481338843133355E-15, 1.224646799147353207E-16, -1.000000000000000000 ) ) ;
#50 = CC_DESIGN_APPROVAL ( #138, ( #111 ) ) ;
#51 = COORDINATED_UNIVERSAL_TIME_OFFSET ( 1, 0, .AHEAD. ) ;
#52 = CARTESIAN_POINT ( 'NONE',  ( 0.0000000000000000000, 0.0000000000000000000, 0.0000000000000000000 ) ) ;
#53 = APPLICATION_CONTEXT ( 'configuration controlled 3d designs of mechanical parts and assemblies' ) ;
#54 = EDGE_LOOP ( 'NONE', ( #43 ) ) ;
#55 = FACE_OUTER_BOUND ( 'NONE', #65, .T. ) ;
#56 = EDGE_CURVE ( 'NONE', #58, #58, #157, .T. ) ;
#57 = CYLINDRICAL_SURFACE ( 'NONE', #134, 5.249999999999997335 ) ;
#58 = VERTEX_POINT ( 'NONE', #124 ) ;
#59 = APPROVAL_DATE_TIME ( #62, #178 ) ;
#60 = PERSON_AND_ORGANIZATION_ROLE ( 'classification_officer' ) ;
#61 = CLOSED_SHELL ( 'NONE', ( #153, #129, #114 ) ) ;
#62 = DATE_AND_TIME ( #144, #117 ) ;
#63 = PERSON_AND_ORGANIZATION_ROLE ( 'design_owner' ) ;
#64 = ADVANCED_BREP_SHAPE_REPRESENTATION ( '29131', ( #201, #71, #127 ), #23 ) ;
#65 = EDGE_LOOP ( 'NONE', ( #41 ) ) ;
#66 = PRODUCT_DEFINITION_SHAPE ( 'NONE', 'NONE',  #111 ) ;
#67 = EDGE_LOOP ( 'NONE', ( #1 ) ) ;
#68 = CIRCLE ( 'NONE', #98, 4.250000000000000888 ) ;
#69 = ORIENTED_EDGE ( 'NONE', *, *, #83, .F. ) ;
#70 = LOCAL_TIME ( 15, 34, 16.00000000000000000, #36 ) ;
#71 = MANIFOLD_SOLID_BREP ( 'Corps-Déplacer/Copier1[2]', #61 ) ;
#72 = FACE_OUTER_BOUND ( 'NONE', #42, .T. ) ;
#73 = CONICAL_SURFACE ( 'NONE', #133, 4.250000000000000888, 0.7853981633974473908 ) ;
#74 = CARTESIAN_POINT ( 'NONE',  ( 1.501336975702547217E-13, -5.265981236333618470E-15, 43.00000000000000000 ) ) ;
#75 = DIRECTION ( 'NONE',  ( 4.275831445896958607E-31, 1.000000000000000000, 1.224646799147353207E-16 ) ) ;
#76 = DATE_AND_TIME ( #179, #180 ) ;
#77 = ADVANCED_FACE ( 'NONE', ( #121 ), #175, .F. ) ;
#78 = PERSON_AND_ORGANIZATION ( #89, #143 ) ;
#79 = CALENDAR_DATE ( 2021, 15, 10 ) ;
#80 = AXIS2_PLACEMENT_3D ( 'NONE', #92, #149, #163 ) ;
#81 = COORDINATED_UNIVERSAL_TIME_OFFSET ( 1, 0, .AHEAD. ) ;
#82 = FACE_OUTER_BOUND ( 'NONE', #22, .T. ) ;
#83 = EDGE_CURVE ( 'NONE', #27, #27, #68, .T. ) ;
#84 = DIRECTION ( 'NONE',  ( 0.0000000000000000000, 1.000000000000000000, 0.0000000000000000000 ) ) ;
#85 = CC_DESIGN_PERSON_AND_ORGANIZATION_ASSIGNMENT ( #154, #196, ( #120 ) ) ;
#86 = ORIENTED_EDGE ( 'NONE', *, *, #56, .T. ) ;
#87 = PRODUCT_RELATED_PRODUCT_CATEGORY ( 'detail', '', ( #155 ) ) ;
#88 = CARTESIAN_POINT ( 'NONE',  ( 6.671675224382825643E-15, 5.249999999999990230, 1.910843729897584886 ) ) ;
#89 = PERSON ( 'UNSPECIFIED', 'UNSPECIFIED', 'UNSPECIFIED', ('UNSPECIFIED'), ('UNSPECIFIED'), ('UNSPECIFIED') ) ;
#90 = CARTESIAN_POINT ( 'NONE',  ( 0.0000000000000000000, 0.0000000000000000000, 0.0000000000000000000 ) ) ;
#91 =( NAMED_UNIT ( * ) SI_UNIT ( $, .STERADIAN. ) SOLID_ANGLE_UNIT ( ) );
#92 = CARTESIAN_POINT ( 'NONE',  ( 6.671675224382823277E-15, -2.340108657489866215E-16, 1.910843729897584220 ) ) ;
#93 = DIRECTION ( 'NONE',  ( 4.275831445896958607E-31, 1.000000000000000000, 1.224646799147353207E-16 ) ) ;
#94 = DATE_TIME_ROLE ( 'creation_date' ) ;
#95 = CC_DESIGN_APPROVAL ( #178, ( #160 ) ) ;
#96 = EDGE_CURVE ( 'NONE', #190, #190, #4, .T. ) ;
#97 = CALENDAR_DATE ( 2021, 15, 10 ) ;
#98 = AXIS2_PLACEMENT_3D ( 'NONE', #106, #139, #28 ) ;
#99 = APPROVAL_PERSON_ORGANIZATION ( #35, #45, #151 ) ;
#100 = DIRECTION ( 'NONE',  ( -3.491481338843133355E-15, 1.224646799147353207E-16, -1.000000000000000000 ) ) ;
#101 = CC_DESIGN_PERSON_AND_ORGANIZATION_ASSIGNMENT ( #164, #16, ( #111 ) ) ;
#102 = ORIENTED_EDGE ( 'NONE', *, *, #38, .T. ) ;
#103 = PLANE ( 'NONE',  #46 ) ;
#104 = AXIS2_PLACEMENT_3D ( 'NONE', #39, #116, #9 ) ;
#105 = DIRECTION ( 'NONE',  ( 3.491481338843133355E-15, -1.224646799147353207E-16, 1.000000000000000000 ) ) ;
#106 = CARTESIAN_POINT ( 'NONE',  ( 3.107418391570388560E-13, -1.089935651241144239E-14, 89.00000000000000000 ) ) ;
#107 = CYLINDRICAL_SURFACE ( 'NONE', #14, 5.249999999999992895 ) ;
#108 = PERSON_AND_ORGANIZATION ( #89, #143 ) ;
#109 = APPROVAL_DATE_TIME ( #76, #45 ) ;
#110 = LOCAL_TIME ( 15, 34, 16.00000000000000000, #130 ) ;
#111 = PRODUCT_DEFINITION ( 'UNKNOWN', '', #120, #33 ) ;
#112 = CC_DESIGN_PERSON_AND_ORGANIZATION_ASSIGNMENT ( #78, #60, ( #160 ) ) ;
#113 = EDGE_LOOP ( 'NONE', ( #145 ) ) ;
#114 = ADVANCED_FACE ( 'NONE', ( #173 ), #161, .T. ) ;
#115 = CC_DESIGN_APPROVAL ( #45, ( #120 ) ) ;
#116 = DIRECTION ( 'NONE',  ( -3.491481338843133355E-15, 1.224646799147353207E-16, -1.000000000000000000 ) ) ;
#117 = LOCAL_TIME ( 15, 34, 16.00000000000000000, #183 ) ;
#118 = ORIENTED_EDGE ( 'NONE', *, *, #176, .F. ) ;
#119 = EDGE_LOOP ( 'NONE', ( #3 ) ) ;
#120 = PRODUCT_DEFINITION_FORMATION_WITH_SPECIFIED_SOURCE ( 'ANY', '', #155, .NOT_KNOWN. ) ;
#121 = FACE_OUTER_BOUND ( 'NONE', #188, .T. ) ;
#122 = FACE_OUTER_BOUND ( 'NONE', #172, .T. ) ;
#123 = FACE_OUTER_BOUND ( 'NONE', #113, .T. ) ;
#124 = CARTESIAN_POINT ( 'NONE',  ( 1.501336975702547217E-13, 5.249999999999990230, 43.00000000000000000 ) ) ;
#125 = SHAPE_DEFINITION_REPRESENTATION ( #66, #64 ) ;
#126 = PERSON_AND_ORGANIZATION ( #89, #143 ) ;
#127 = AXIS2_PLACEMENT_3D ( 'NONE', #52, #141, #167 ) ;
#128 = APPROVAL_STATUS ( 'not_yet_approved' ) ;
#129 = ADVANCED_FACE ( 'NONE', ( #122, #174 ), #107, .T. ) ;
#130 = COORDINATED_UNIVERSAL_TIME_OFFSET ( 1, 0, .AHEAD. ) ;
#131 = CARTESIAN_POINT ( 'NONE',  ( 1.501336975702547217E-13, 3.936869429487364452E-32, 43.00000000000000000 ) ) ;
#132 = CARTESIAN_POINT ( 'NONE',  ( 3.107418391570388560E-13, -1.089935651241144239E-14, 89.00000000000000000 ) ) ;
#133 = AXIS2_PLACEMENT_3D ( 'NONE', #132, #100, #84 ) ;
#134 = AXIS2_PLACEMENT_3D ( 'NONE', #90, #44, #93 ) ;
#135 = CARTESIAN_POINT ( 'NONE',  ( 1.501336975702547217E-13, 3.936869429487364452E-32, 43.00000000000000000 ) ) ;
#136 =( NAMED_UNIT ( * ) PLANE_ANGLE_UNIT ( ) SI_UNIT ( $, .RADIAN. ) );
#137 = CARTESIAN_POINT ( 'NONE',  ( 0.0000000000000000000, 0.0000000000000000000, 0.0000000000000000000 ) ) ;
#138 = APPROVAL ( #34, 'UNSPECIFIED' ) ;
#139 = DIRECTION ( 'NONE',  ( -3.491481338843133355E-15, 1.224646799147353207E-16, -1.000000000000000000 ) ) ;
#140 = DIRECTION ( 'NONE',  ( 0.0000000000000000000, 1.000000000000000000, 0.0000000000000000000 ) ) ;
#141 = DIRECTION ( 'NONE',  ( 0.0000000000000000000, 0.0000000000000000000, 1.000000000000000000 ) ) ;
#142 = APPLICATION_PROTOCOL_DEFINITION ( 'international standard', 'config_control_design', 1994, #53 ) ;
#143 = ORGANIZATION ( 'UNSPECIFIED', 'UNSPECIFIED', '' ) ;
#144 = CALENDAR_DATE ( 2021, 15, 10 ) ;
#145 = ORIENTED_EDGE ( 'NONE', *, *, #176, .T. ) ;
#146 = CLOSED_SHELL ( 'NONE', ( #6, #171, #20, #77 ) ) ;
#147 = CARTESIAN_POINT ( 'NONE',  ( 3.072503578181957353E-13, 5.249999999999990230, 88.00000000000000000 ) ) ;
#148 = VERTEX_POINT ( 'NONE', #147 ) ;
#149 = DIRECTION ( 'NONE',  ( 3.491481338843133355E-15, -1.224646799147353207E-16, 1.000000000000000000 ) ) ;
#150 = CALENDAR_DATE ( 2021, 15, 10 ) ;
#151 = APPROVAL_ROLE ( '' ) ;
#152 = MECHANICAL_CONTEXT ( 'NONE', #53, 'mechanical' ) ;
#153 = ADVANCED_FACE ( 'NONE', ( #123 ), #40, .T. ) ;
#154 = PERSON_AND_ORGANIZATION ( #89, #143 ) ;
#155 = PRODUCT ( '29131', '29131', '', ( #152 ) ) ;
#156 = APPROVAL_PERSON_ORGANIZATION ( #108, #138, #197 ) ;
#157 = CIRCLE ( 'NONE', #181, 5.249999999999995559 ) ;
#158 = DIRECTION ( 'NONE',  ( -3.491481338843133355E-15, 1.224646799147353207E-16, -1.000000000000000000 ) ) ;
#159 = DIRECTION ( 'NONE',  ( 4.275831445896957731E-31, 1.000000000000000000, 1.224646799147353207E-16 ) ) ;
#160 = SECURITY_CLASSIFICATION ( '', '', #198 ) ;
#161 = PLANE ( 'NONE',  #191 ) ;
#162 = AXIS2_PLACEMENT_3D ( 'NONE', #47, #48, #75 ) ;
#163 = DIRECTION ( 'NONE',  ( -4.402125587170832814E-31, -1.000000000000000000, -1.239088197126293036E-16 ) ) ;
#164 = PERSON_AND_ORGANIZATION ( #89, #143 ) ;
#165 = PERSON_AND_ORGANIZATION ( #89, #143 ) ;
#166 = UNCERTAINTY_MEASURE_WITH_UNIT (LENGTH_MEASURE( 1.000000000000000082E-05 ), #7, 'distance_accuracy_value', 'NONE');
#167 = DIRECTION ( 'NONE',  ( 1.000000000000000000, 0.0000000000000000000, 0.0000000000000000000 ) ) ;
#168 = APPROVAL_DATE_TIME ( #18, #138 ) ;
#169 = CIRCLE ( 'NONE', #192, 5.249999999999990230 ) ;
#170 = DIRECTION ( 'NONE',  ( -4.275831445896958607E-31, -1.000000000000000000, -1.224646799147353207E-16 ) ) ;
#171 = ADVANCED_FACE ( 'NONE', ( #31, #72 ), #57, .T. ) ;
#172 = EDGE_LOOP ( 'NONE', ( #118 ) ) ;
#173 = FACE_OUTER_BOUND ( 'NONE', #54, .T. ) ;
#174 = FACE_OUTER_BOUND ( 'NONE', #187, .T. ) ;
#175 = PLANE ( 'NONE',  #162 ) ;
#176 = EDGE_CURVE ( 'NONE', #8, #8, #169, .T. ) ;
#177 = CARTESIAN_POINT ( 'NONE',  ( 1.501336975702547217E-13, 5.249999999999990230, 43.00000000000000000 ) ) ;
#178 = APPROVAL ( #128, 'UNSPECIFIED' ) ;
#179 = CALENDAR_DATE ( 2021, 15, 10 ) ;
#180 = LOCAL_TIME ( 15, 34, 16.00000000000000000, #81 ) ;
#181 = AXIS2_PLACEMENT_3D ( 'NONE', #74, #49, #193 ) ;
#182 = APPROVAL_STATUS ( 'not_yet_approved' ) ;
#183 = COORDINATED_UNIVERSAL_TIME_OFFSET ( 1, 0, .AHEAD. ) ;
#184 = CIRCLE ( 'NONE', #104, 5.250000000000000000 ) ;
#185 = FACE_BOUND ( 'NONE', #119, .T. ) ;
#186 = CC_DESIGN_SECURITY_CLASSIFICATION ( #160, ( #120 ) ) ;
#187 = EDGE_LOOP ( 'NONE', ( #19 ) ) ;
#188 = EDGE_LOOP ( 'NONE', ( #69 ) ) ;
#189 = DIRECTION ( 'NONE',  ( -3.491481338843133355E-15, 1.224646799147353207E-16, -1.000000000000000000 ) ) ;
#190 = VERTEX_POINT ( 'NONE', #177 ) ;
#191 = AXIS2_PLACEMENT_3D ( 'NONE', #135, #105, #194 ) ;
#192 = AXIS2_PLACEMENT_3D ( 'NONE', #195, #158, #10 ) ;
#193 = DIRECTION ( 'NONE',  ( 0.0000000000000000000, 1.000000000000000000, 0.0000000000000000000 ) ) ;
#194 = DIRECTION ( 'NONE',  ( -4.275831445896958607E-31, -1.000000000000000000, -1.224646799147353207E-16 ) ) ;
#195 = CARTESIAN_POINT ( 'NONE',  ( 6.671675224382823277E-15, -2.340108657489866215E-16, 1.910843729897584220 ) ) ;
#196 = PERSON_AND_ORGANIZATION_ROLE ( 'creator' ) ;
#197 = APPROVAL_ROLE ( '' ) ;
#198 = SECURITY_CLASSIFICATION_LEVEL ( 'unclassified' ) ;
#199 = APPROVAL_ROLE ( '' ) ;
#200 = APPLICATION_PROTOCOL_DEFINITION ( 'international standard', 'config_control_design', 1994, #13 ) ;
#201 = MANIFOLD_SOLID_BREP ( 'Corps-Déplacer/Copier1[1]', #146 ) ;
#202 = CC_DESIGN_DATE_AND_TIME_ASSIGNMENT ( #32, #94, ( #111 ) ) ;
#203 = LOCAL_TIME ( 15, 34, 16.00000000000000000, #51 ) ;
ENDSEC;
END-ISO-10303-21;
