ISO-10303-21;
HEADER;
FILE_DESCRIPTION (( 'STEP AP203' ),
    '1' );
FILE_NAME ('29130.step',
    '2021-10-15T13:34:15',
    ( '' ),
    ( '' ),
    'SwSTEP 2.0',
    'SolidWorks 2019',
    '' );
FILE_SCHEMA (( 'CONFIG_CONTROL_DESIGN' ));
ENDSEC;

DATA;
#1 = LOCAL_TIME ( 15, 34, 15.00000000000000000, #192 ) ;
#2 = DIRECTION ( 'NONE',  ( 4.275831445896959482E-31, 1.000000000000000000, 1.224646799147353207E-16 ) ) ;
#3 = DIRECTION ( 'NONE',  ( -4.275831445896958607E-31, -1.000000000000000000, -1.224646799147353207E-16 ) ) ;
#4 = CARTESIAN_POINT ( 'NONE',  ( 3.072503578181957353E-13, -1.077689183249670724E-14, 88.00000000000000000 ) ) ;
#5 = EDGE_CURVE ( 'NONE', #58, #58, #145, .T. ) ;
#6 = CIRCLE ( 'NONE', #195, 5.099999999999988987 ) ;
#7 = CYLINDRICAL_SURFACE ( 'NONE', #19, 5.099999999999996980 ) ;
#8 = DIRECTION ( 'NONE',  ( -3.491481338843133355E-15, 1.224646799147353207E-16, -1.000000000000000000 ) ) ;
#9 = PERSON_AND_ORGANIZATION_ROLE ( 'design_supplier' ) ;
#10 = ADVANCED_FACE ( 'NONE', ( #198 ), #45, .T. ) ;
#11 = LOCAL_TIME ( 15, 34, 15.00000000000000000, #12 ) ;
#12 = COORDINATED_UNIVERSAL_TIME_OFFSET ( 1, 0, .AHEAD. ) ;
#13 = AXIS2_PLACEMENT_3D ( 'NONE', #101, #181, #15 ) ;
#14 = AXIS2_PLACEMENT_3D ( 'NONE', #114, #177, #86 ) ;
#15 = DIRECTION ( 'NONE',  ( 0.0000000000000000000, 1.000000000000000000, 0.0000000000000000000 ) ) ;
#16 = EDGE_LOOP ( 'NONE', ( #56 ) ) ;
#17 = DIRECTION ( 'NONE',  ( -3.491481338843133355E-15, 1.224646799147353207E-16, -1.000000000000000000 ) ) ;
#18 = FACE_OUTER_BOUND ( 'NONE', #182, .T. ) ;
#19 = AXIS2_PLACEMENT_3D ( 'NONE', #109, #8, #2 ) ;
#20 = FACE_OUTER_BOUND ( 'NONE', #151, .T. ) ;
#21 = DIRECTION ( 'NONE',  ( 4.275831445896958607E-31, 1.000000000000000000, 1.224646799147353207E-16 ) ) ;
#22 = PRODUCT_DEFINITION ( 'UNKNOWN', '', #158, #129 ) ;
#23 = PERSON_AND_ORGANIZATION ( #200, #67 ) ;
#24 =( GEOMETRIC_REPRESENTATION_CONTEXT ( 3 ) GLOBAL_UNCERTAINTY_ASSIGNED_CONTEXT ( ( #36 ) ) GLOBAL_UNIT_ASSIGNED_CONTEXT ( ( #170, #29, #94 ) ) REPRESENTATION_CONTEXT ( 'NONE', 'WORKASPACE' ) );
#25 = CARTESIAN_POINT ( 'NONE',  ( 1.501336975702547217E-13, -5.265981236333618470E-15, 43.00000000000000000 ) ) ;
#26 = APPROVAL_PERSON_ORGANIZATION ( #51, #83, #112 ) ;
#27 = EDGE_CURVE ( 'NONE', #61, #61, #132, .T. ) ;
#28 = CARTESIAN_POINT ( 'NONE',  ( 6.481055932257598019E-15, -2.273248410133012303E-16, 1.856248194757652570 ) ) ;
#29 =( NAMED_UNIT ( * ) PLANE_ANGLE_UNIT ( ) SI_UNIT ( $, .RADIAN. ) );
#30 = CLOSED_SHELL ( 'NONE', ( #54, #180, #57, #103 ) ) ;
#31 = DIRECTION ( 'NONE',  ( -4.275831445896958607E-31, -1.000000000000000000, -1.224646799147353207E-16 ) ) ;
#32 = CARTESIAN_POINT ( 'NONE',  ( 3.072503578181957353E-13, 5.099999999999988987, 88.00000000000000000 ) ) ;
#33 = PERSON_AND_ORGANIZATION ( #200, #67 ) ;
#34 = FACE_OUTER_BOUND ( 'NONE', #40, .T. ) ;
#35 = APPLICATION_PROTOCOL_DEFINITION ( 'international standard', 'config_control_design', 1994, #190 ) ;
#36 = UNCERTAINTY_MEASURE_WITH_UNIT (LENGTH_MEASURE( 1.000000000000000082E-05 ), #170, 'distance_accuracy_value', 'NONE');
#37 = EDGE_CURVE ( 'NONE', #138, #138, #124, .T. ) ;
#38 = DATE_AND_TIME ( #68, #11 ) ;
#39 = COORDINATED_UNIVERSAL_TIME_OFFSET ( 1, 0, .AHEAD. ) ;
#40 = EDGE_LOOP ( 'NONE', ( #149 ) ) ;
#41 = DIRECTION ( 'NONE',  ( 0.0000000000000000000, 1.000000000000000000, 0.0000000000000000000 ) ) ;
#42 = APPLICATION_CONTEXT ( 'configuration controlled 3d designs of mechanical parts and assemblies' ) ;
#43 = LOCAL_TIME ( 15, 34, 15.00000000000000000, #130 ) ;
#44 = EDGE_LOOP ( 'NONE', ( #131 ) ) ;
#45 = CONICAL_SURFACE ( 'NONE', #164, 5.099999999999988987, 1.221730476396026388 ) ;
#46 = CARTESIAN_POINT ( 'NONE',  ( 6.481055932257598019E-15, -2.273248410133012303E-16, 1.856248194757652570 ) ) ;
#47 = DIRECTION ( 'NONE',  ( 4.275831445896958607E-31, 1.000000000000000000, 1.224646799147353207E-16 ) ) ;
#48 = CARTESIAN_POINT ( 'NONE',  ( 3.107418391570388560E-13, 4.099999999999988987, 89.00000000000000000 ) ) ;
#49 = CC_DESIGN_SECURITY_CLASSIFICATION ( #96, ( #158 ) ) ;
#50 = APPLICATION_PROTOCOL_DEFINITION ( 'international standard', 'config_control_design', 1994, #42 ) ;
#51 = PERSON_AND_ORGANIZATION ( #200, #67 ) ;
#52 = PERSON_AND_ORGANIZATION_ROLE ( 'creator' ) ;
#53 = PERSON_AND_ORGANIZATION ( #200, #67 ) ;
#54 = ADVANCED_FACE ( 'NONE', ( #18 ), #93, .F. ) ;
#55 = DIRECTION ( 'NONE',  ( -4.531599869146447038E-31, -1.000000000000000000, -1.275531967630007957E-16 ) ) ;
#56 = ORIENTED_EDGE ( 'NONE', *, *, #163, .T. ) ;
#57 = ADVANCED_FACE ( 'NONE', ( #74, #59 ), #73, .T. ) ;
#58 = VERTEX_POINT ( 'NONE', #191 ) ;
#59 = FACE_BOUND ( 'NONE', #135, .T. ) ;
#60 = AXIS2_PLACEMENT_3D ( 'NONE', #127, #174, #31 ) ;
#61 = VERTEX_POINT ( 'NONE', #48 ) ;
#62 = ADVANCED_FACE ( 'NONE', ( #142 ), #187, .T. ) ;
#63 = CARTESIAN_POINT ( 'NONE',  ( 3.107418391570388560E-13, 3.074507554456791675E-32, 89.00000000000000000 ) ) ;
#64 = PRODUCT ( '29130', '29130', '', ( #99 ) ) ;
#65 = SECURITY_CLASSIFICATION_LEVEL ( 'unclassified' ) ;
#66 = APPROVAL_PERSON_ORGANIZATION ( #144, #196, #87 ) ;
#67 = ORGANIZATION ( 'UNSPECIFIED', 'UNSPECIFIED', '' ) ;
#68 = CALENDAR_DATE ( 2021, 15, 10 ) ;
#69 = EDGE_LOOP ( 'NONE', ( #179 ) ) ;
#70 = LOCAL_TIME ( 15, 34, 15.00000000000000000, #39 ) ;
#71 = ORIENTED_EDGE ( 'NONE', *, *, #100, .F. ) ;
#72 = ORIENTED_EDGE ( 'NONE', *, *, #27, .T. ) ;
#73 = CONICAL_SURFACE ( 'NONE', #141, 4.100000000000000533, 0.7853981633974473908 ) ;
#74 = FACE_OUTER_BOUND ( 'NONE', #203, .T. ) ;
#75 = DIRECTION ( 'NONE',  ( 0.0000000000000000000, 1.000000000000000000, 0.0000000000000000000 ) ) ;
#76 = CYLINDRICAL_SURFACE ( 'NONE', #165, 5.099999999999991651 ) ;
#77 = CC_DESIGN_DATE_AND_TIME_ASSIGNMENT ( #111, #115, ( #22 ) ) ;
#78 = AXIS2_PLACEMENT_3D ( 'NONE', #4, #137, #80 ) ;
#79 = APPROVAL_DATE_TIME ( #171, #146 ) ;
#80 = DIRECTION ( 'NONE',  ( 0.0000000000000000000, 1.000000000000000000, 0.0000000000000000000 ) ) ;
#81 = PRODUCT_DEFINITION_SHAPE ( 'NONE', 'NONE',  #22 ) ;
#82 = AXIS2_PLACEMENT_3D ( 'NONE', #157, #17, #75 ) ;
#83 = APPROVAL ( #84, 'UNSPECIFIED' ) ;
#84 = APPROVAL_STATUS ( 'not_yet_approved' ) ;
#85 = PERSON_AND_ORGANIZATION ( #200, #67 ) ;
#86 = DIRECTION ( 'NONE',  ( 1.000000000000000000, 0.0000000000000000000, 0.0000000000000000000 ) ) ;
#87 = APPROVAL_ROLE ( '' ) ;
#88 = COORDINATED_UNIVERSAL_TIME_OFFSET ( 1, 0, .AHEAD. ) ;
#89 = AXIS2_PLACEMENT_3D ( 'NONE', #123, #139, #3 ) ;
#90 = ORIENTED_EDGE ( 'NONE', *, *, #37, .T. ) ;
#91 = DIRECTION ( 'NONE',  ( 3.491481338843133355E-15, -1.224646799147353207E-16, 1.000000000000000000 ) ) ;
#92 = CC_DESIGN_PERSON_AND_ORGANIZATION_ASSIGNMENT ( #194, #128, ( #96 ) ) ;
#93 = PLANE ( 'NONE',  #60 ) ;
#94 =( NAMED_UNIT ( * ) SI_UNIT ( $, .STERADIAN. ) SOLID_ANGLE_UNIT ( ) );
#95 = DIRECTION ( 'NONE',  ( -3.491481338843133355E-15, 1.224646799147353207E-16, -1.000000000000000000 ) ) ;
#96 = SECURITY_CLASSIFICATION ( '', '', #65 ) ;
#97 = PLANE ( 'NONE',  #159 ) ;
#98 = PERSON_AND_ORGANIZATION_ROLE ( 'creator' ) ;
#99 = MECHANICAL_CONTEXT ( 'NONE', #190, 'mechanical' ) ;
#100 = EDGE_CURVE ( 'NONE', #173, #173, #6, .T. ) ;
#101 = CARTESIAN_POINT ( 'NONE',  ( 3.107418391570388560E-13, -1.089935651241144239E-14, 89.00000000000000000 ) ) ;
#102 = SHAPE_DEFINITION_REPRESENTATION ( #81, #188 ) ;
#103 = ADVANCED_FACE ( 'NONE', ( #140 ), #97, .F. ) ;
#104 = DATE_AND_TIME ( #126, #1 ) ;
#105 = DIRECTION ( 'NONE',  ( -3.491481338843133355E-15, 1.224646799147353207E-16, -1.000000000000000000 ) ) ;
#106 = CC_DESIGN_PERSON_AND_ORGANIZATION_ASSIGNMENT ( #23, #9, ( #158 ) ) ;
#107 = DIRECTION ( 'NONE',  ( 0.0000000000000000000, 1.000000000000000000, 0.0000000000000000000 ) ) ;
#108 = DIRECTION ( 'NONE',  ( -3.491481338843133355E-15, 1.224646799147353207E-16, -1.000000000000000000 ) ) ;
#109 = CARTESIAN_POINT ( 'NONE',  ( 0.0000000000000000000, 0.0000000000000000000, 0.0000000000000000000 ) ) ;
#110 = LOCAL_TIME ( 15, 34, 15.00000000000000000, #88 ) ;
#111 = DATE_AND_TIME ( #162, #70 ) ;
#112 = APPROVAL_ROLE ( '' ) ;
#113 = CC_DESIGN_PERSON_AND_ORGANIZATION_ASSIGNMENT ( #53, #52, ( #22 ) ) ;
#114 = CARTESIAN_POINT ( 'NONE',  ( 0.0000000000000000000, 0.0000000000000000000, 0.0000000000000000000 ) ) ;
#115 = DATE_TIME_ROLE ( 'creation_date' ) ;
#116 = CLOSED_SHELL ( 'NONE', ( #10, #148, #62 ) ) ;
#117 = CIRCLE ( 'NONE', #78, 5.099999999999999645 ) ;
#118 = CC_DESIGN_PERSON_AND_ORGANIZATION_ASSIGNMENT ( #85, #98, ( #158 ) ) ;
#119 = ORIENTED_EDGE ( 'NONE', *, *, #163, .F. ) ;
#120 = EDGE_LOOP ( 'NONE', ( #134 ) ) ;
#121 = CC_DESIGN_APPROVAL ( #146, ( #96 ) ) ;
#122 = CARTESIAN_POINT ( 'NONE',  ( 1.501336975702547217E-13, 5.099999999999988987, 43.00000000000000000 ) ) ;
#123 = CARTESIAN_POINT ( 'NONE',  ( 1.501336975702547217E-13, 3.824387445787724858E-32, 43.00000000000000000 ) ) ;
#124 = CIRCLE ( 'NONE', #82, 5.099999999999994316 ) ;
#125 = DATE_TIME_ROLE ( 'classification_date' ) ;
#126 = CALENDAR_DATE ( 2021, 15, 10 ) ;
#127 = CARTESIAN_POINT ( 'NONE',  ( 1.501336975702547217E-13, 3.824387445787724858E-32, 43.00000000000000000 ) ) ;
#128 = PERSON_AND_ORGANIZATION_ROLE ( 'classification_officer' ) ;
#129 = DESIGN_CONTEXT ( 'detailed design', #42, 'design' ) ;
#130 = COORDINATED_UNIVERSAL_TIME_OFFSET ( 1, 0, .AHEAD. ) ;
#131 = ORIENTED_EDGE ( 'NONE', *, *, #37, .F. ) ;
#132 = CIRCLE ( 'NONE', #13, 4.100000000000000533 ) ;
#133 = APPROVAL_PERSON_ORGANIZATION ( #33, #146, #152 ) ;
#134 = ORIENTED_EDGE ( 'NONE', *, *, #5, .F. ) ;
#135 = EDGE_LOOP ( 'NONE', ( #72 ) ) ;
#136 = CC_DESIGN_APPROVAL ( #83, ( #22 ) ) ;
#137 = DIRECTION ( 'NONE',  ( -3.491481338843133355E-15, 1.224646799147353207E-16, -1.000000000000000000 ) ) ;
#138 = VERTEX_POINT ( 'NONE', #122 ) ;
#139 = DIRECTION ( 'NONE',  ( 3.491481338843133355E-15, -1.224646799147353207E-16, 1.000000000000000000 ) ) ;
#140 = FACE_OUTER_BOUND ( 'NONE', #69, .T. ) ;
#141 = AXIS2_PLACEMENT_3D ( 'NONE', #189, #172, #107 ) ;
#142 = FACE_OUTER_BOUND ( 'NONE', #120, .T. ) ;
#143 = CC_DESIGN_DATE_AND_TIME_ASSIGNMENT ( #104, #125, ( #96 ) ) ;
#144 = PERSON_AND_ORGANIZATION ( #200, #67 ) ;
#145 = CIRCLE ( 'NONE', #199, 5.099999999999994316 ) ;
#146 = APPROVAL ( #202, 'UNSPECIFIED' ) ;
#147 = PERSON_AND_ORGANIZATION_ROLE ( 'design_owner' ) ;
#148 = ADVANCED_FACE ( 'NONE', ( #20, #34 ), #76, .T. ) ;
#149 = ORIENTED_EDGE ( 'NONE', *, *, #5, .T. ) ;
#150 = MANIFOLD_SOLID_BREP ( 'Corps-Déplacer/Copier1[2]', #116 ) ;
#151 = EDGE_LOOP ( 'NONE', ( #71 ) ) ;
#152 = APPROVAL_ROLE ( '' ) ;
#153 = CC_DESIGN_PERSON_AND_ORGANIZATION_ASSIGNMENT ( #167, #147, ( #64 ) ) ;
#154 = MANIFOLD_SOLID_BREP ( 'Corps-Déplacer/Copier1[1]', #30 ) ;
#155 = FACE_OUTER_BOUND ( 'NONE', #44, .T. ) ;
#156 = DIRECTION ( 'NONE',  ( 4.531599869146447038E-31, 1.000000000000000000, 1.275531967630007957E-16 ) ) ;
#157 = CARTESIAN_POINT ( 'NONE',  ( 1.501336975702547217E-13, -5.265981236333618470E-15, 43.00000000000000000 ) ) ;
#158 = PRODUCT_DEFINITION_FORMATION_WITH_SPECIFIED_SOURCE ( 'ANY', '', #64, .NOT_KNOWN. ) ;
#159 = AXIS2_PLACEMENT_3D ( 'NONE', #63, #108, #47 ) ;
#160 = PRODUCT_RELATED_PRODUCT_CATEGORY ( 'detail', '', ( #64 ) ) ;
#161 = CARTESIAN_POINT ( 'NONE',  ( 0.0000000000000000000, 0.0000000000000000000, 0.0000000000000000000 ) ) ;
#162 = CALENDAR_DATE ( 2021, 15, 10 ) ;
#163 = EDGE_CURVE ( 'NONE', #175, #175, #117, .T. ) ;
#164 = AXIS2_PLACEMENT_3D ( 'NONE', #28, #91, #55 ) ;
#165 = AXIS2_PLACEMENT_3D ( 'NONE', #161, #95, #21 ) ;
#166 = CALENDAR_DATE ( 2021, 15, 10 ) ;
#167 = PERSON_AND_ORGANIZATION ( #200, #67 ) ;
#168 = CALENDAR_DATE ( 2021, 15, 10 ) ;
#169 = DIRECTION ( 'NONE',  ( -3.491481338843133355E-15, 1.224646799147353207E-16, -1.000000000000000000 ) ) ;
#170 =( LENGTH_UNIT ( ) NAMED_UNIT ( * ) SI_UNIT ( .MILLI., .METRE. ) );
#171 = DATE_AND_TIME ( #168, #110 ) ;
#172 = DIRECTION ( 'NONE',  ( -3.491481338843133355E-15, 1.224646799147353207E-16, -1.000000000000000000 ) ) ;
#173 = VERTEX_POINT ( 'NONE', #185 ) ;
#174 = DIRECTION ( 'NONE',  ( 3.491481338843133355E-15, -1.224646799147353207E-16, 1.000000000000000000 ) ) ;
#175 = VERTEX_POINT ( 'NONE', #32 ) ;
#176 = APPROVAL_DATE_TIME ( #38, #196 ) ;
#177 = DIRECTION ( 'NONE',  ( 0.0000000000000000000, 0.0000000000000000000, 1.000000000000000000 ) ) ;
#178 = APPROVAL_STATUS ( 'not_yet_approved' ) ;
#179 = ORIENTED_EDGE ( 'NONE', *, *, #27, .F. ) ;
#180 = ADVANCED_FACE ( 'NONE', ( #155, #186 ), #7, .T. ) ;
#181 = DIRECTION ( 'NONE',  ( -3.491481338843133355E-15, 1.224646799147353207E-16, -1.000000000000000000 ) ) ;
#182 = EDGE_LOOP ( 'NONE', ( #90 ) ) ;
#183 = CC_DESIGN_APPROVAL ( #196, ( #158 ) ) ;
#184 = EDGE_LOOP ( 'NONE', ( #201 ) ) ;
#185 = CARTESIAN_POINT ( 'NONE',  ( 6.481055932257600386E-15, 5.099999999999988987, 1.856248194757653236 ) ) ;
#186 = FACE_OUTER_BOUND ( 'NONE', #16, .T. ) ;
#187 = PLANE ( 'NONE',  #89 ) ;
#188 = ADVANCED_BREP_SHAPE_REPRESENTATION ( '29130', ( #154, #150, #14 ), #24 ) ;
#189 = CARTESIAN_POINT ( 'NONE',  ( 3.107418391570388560E-13, -1.089935651241144239E-14, 89.00000000000000000 ) ) ;
#190 = APPLICATION_CONTEXT ( 'configuration controlled 3d designs of mechanical parts and assemblies' ) ;
#191 = CARTESIAN_POINT ( 'NONE',  ( 1.501336975702547217E-13, 5.099999999999988987, 43.00000000000000000 ) ) ;
#192 = COORDINATED_UNIVERSAL_TIME_OFFSET ( 1, 0, .AHEAD. ) ;
#193 = APPROVAL_DATE_TIME ( #197, #83 ) ;
#194 = PERSON_AND_ORGANIZATION ( #200, #67 ) ;
#195 = AXIS2_PLACEMENT_3D ( 'NONE', #46, #105, #156 ) ;
#196 = APPROVAL ( #178, 'UNSPECIFIED' ) ;
#197 = DATE_AND_TIME ( #166, #43 ) ;
#198 = FACE_OUTER_BOUND ( 'NONE', #184, .T. ) ;
#199 = AXIS2_PLACEMENT_3D ( 'NONE', #25, #169, #41 ) ;
#200 = PERSON ( 'UNSPECIFIED', 'UNSPECIFIED', 'UNSPECIFIED', ('UNSPECIFIED'), ('UNSPECIFIED'), ('UNSPECIFIED') ) ;
#201 = ORIENTED_EDGE ( 'NONE', *, *, #100, .T. ) ;
#202 = APPROVAL_STATUS ( 'not_yet_approved' ) ;
#203 = EDGE_LOOP ( 'NONE', ( #119 ) ) ;
ENDSEC;
END-ISO-10303-21;
