ISO-10303-21;
HEADER;
FILE_DESCRIPTION (( 'STEP AP203' ),
    '1' );
FILE_NAME ('29129.step',
    '2021-10-15T13:34:14',
    ( '' ),
    ( '' ),
    'SwSTEP 2.0',
    'SolidWorks 2019',
    '' );
FILE_SCHEMA (( 'CONFIG_CONTROL_DESIGN' ));
ENDSEC;

DATA;
#1 = CALENDAR_DATE ( 2021, 15, 10 ) ;
#2 = CC_DESIGN_PERSON_AND_ORGANIZATION_ASSIGNMENT ( #186, #175, ( #68 ) ) ;
#3 = ORGANIZATION ( 'UNSPECIFIED', 'UNSPECIFIED', '' ) ;
#4 = DIRECTION ( 'NONE',  ( 0.0000000000000000000, 0.0000000000000000000, 1.000000000000000000 ) ) ;
#5 = SHAPE_DEFINITION_REPRESENTATION ( #16, #31 ) ;
#6 = ORIENTED_EDGE ( 'NONE', *, *, #172, .T. ) ;
#7 = UNCERTAINTY_MEASURE_WITH_UNIT (LENGTH_MEASURE( 1.000000000000000082E-05 ), #137, 'distance_accuracy_value', 'NONE');
#8 = CYLINDRICAL_SURFACE ( 'NONE', #90, 4.999999999999997335 ) ;
#9 = ORIENTED_EDGE ( 'NONE', *, *, #163, .F. ) ;
#10 = EDGE_LOOP ( 'NONE', ( #165 ) ) ;
#11 = FACE_OUTER_BOUND ( 'NONE', #34, .T. ) ;
#12 =( GEOMETRIC_REPRESENTATION_CONTEXT ( 3 ) GLOBAL_UNCERTAINTY_ASSIGNED_CONTEXT ( ( #7 ) ) GLOBAL_UNIT_ASSIGNED_CONTEXT ( ( #137, #152, #51 ) ) REPRESENTATION_CONTEXT ( 'NONE', 'WORKASPACE' ) );
#13 = FACE_OUTER_BOUND ( 'NONE', #130, .T. ) ;
#14 = PRODUCT_RELATED_PRODUCT_CATEGORY ( 'detail', '', ( #41 ) ) ;
#15 = CARTESIAN_POINT ( 'NONE',  ( 1.501336975702547217E-13, 4.999999999999989342, 43.00000000000000000 ) ) ;
#16 = PRODUCT_DEFINITION_SHAPE ( 'NONE', 'NONE',  #157 ) ;
#17 = PERSON_AND_ORGANIZATION ( #153, #3 ) ;
#18 = DIRECTION ( 'NONE',  ( 1.000000000000000000, 0.0000000000000000000, 0.0000000000000000000 ) ) ;
#19 = ADVANCED_FACE ( 'NONE', ( #82, #147 ), #8, .T. ) ;
#20 = EDGE_LOOP ( 'NONE', ( #80 ) ) ;
#21 = CIRCLE ( 'NONE', #197, 4.999999999999994671 ) ;
#22 = FACE_OUTER_BOUND ( 'NONE', #49, .T. ) ;
#23 = APPROVAL ( #77, 'UNSPECIFIED' ) ;
#24 = EDGE_LOOP ( 'NONE', ( #69 ) ) ;
#25 = DIRECTION ( 'NONE',  ( 3.491481338843133355E-15, -1.224646799147353207E-16, 1.000000000000000000 ) ) ;
#26 = DIRECTION ( 'NONE',  ( 4.622231866529375681E-31, 1.000000000000000000, 1.301042606982608033E-16 ) ) ;
#27 = DIRECTION ( 'NONE',  ( -4.275831445896958607E-31, -1.000000000000000000, -1.224646799147353207E-16 ) ) ;
#28 = DIRECTION ( 'NONE',  ( -3.491481338843133355E-15, 1.224646799147353207E-16, -1.000000000000000000 ) ) ;
#29 = AXIS2_PLACEMENT_3D ( 'NONE', #182, #84, #26 ) ;
#30 = CC_DESIGN_PERSON_AND_ORGANIZATION_ASSIGNMENT ( #190, #125, ( #157 ) ) ;
#31 = ADVANCED_BREP_SHAPE_REPRESENTATION ( '29129', ( #164, #85, #44 ), #12 ) ;
#32 = APPLICATION_PROTOCOL_DEFINITION ( 'international standard', 'config_control_design', 1994, #146 ) ;
#33 = COORDINATED_UNIVERSAL_TIME_OFFSET ( 1, 0, .AHEAD. ) ;
#34 = EDGE_LOOP ( 'NONE', ( #136 ) ) ;
#35 = ORIENTED_EDGE ( 'NONE', *, *, #184, .F. ) ;
#36 = DIRECTION ( 'NONE',  ( 4.275831445896958607E-31, 1.000000000000000000, 1.224646799147353207E-16 ) ) ;
#37 = DIRECTION ( 'NONE',  ( -4.275831445896958607E-31, -1.000000000000000000, -1.224646799147353207E-16 ) ) ;
#38 = VERTEX_POINT ( 'NONE', #203 ) ;
#39 = DIRECTION ( 'NONE',  ( 3.491481338843133355E-15, -1.224646799147353207E-16, 1.000000000000000000 ) ) ;
#40 = CARTESIAN_POINT ( 'NONE',  ( 1.501336975702547217E-13, 3.749399456654632525E-32, 43.00000000000000000 ) ) ;
#41 = PRODUCT ( '29129', '29129', '', ( #75 ) ) ;
#42 = ADVANCED_FACE ( 'NONE', ( #66, #22 ), #132, .T. ) ;
#43 = COORDINATED_UNIVERSAL_TIME_OFFSET ( 1, 0, .AHEAD. ) ;
#44 = AXIS2_PLACEMENT_3D ( 'NONE', #62, #4, #18 ) ;
#45 = DATE_AND_TIME ( #47, #129 ) ;
#46 = DATE_AND_TIME ( #106, #113 ) ;
#47 = CALENDAR_DATE ( 2021, 15, 10 ) ;
#48 = AXIS2_PLACEMENT_3D ( 'NONE', #40, #39, #27 ) ;
#49 = EDGE_LOOP ( 'NONE', ( #6 ) ) ;
#50 = EDGE_LOOP ( 'NONE', ( #67 ) ) ;
#51 =( NAMED_UNIT ( * ) SI_UNIT ( $, .STERADIAN. ) SOLID_ANGLE_UNIT ( ) );
#52 = CC_DESIGN_SECURITY_CLASSIFICATION ( #142, ( #68 ) ) ;
#53 = FACE_OUTER_BOUND ( 'NONE', #81, .T. ) ;
#54 = VERTEX_POINT ( 'NONE', #139 ) ;
#55 = PLANE ( 'NONE',  #48 ) ;
#56 = VERTEX_POINT ( 'NONE', #15 ) ;
#57 = CIRCLE ( 'NONE', #29, 4.999999999999989342 ) ;
#58 = PERSON_AND_ORGANIZATION ( #153, #3 ) ;
#59 = APPROVAL_DATE_TIME ( #144, #65 ) ;
#60 = CIRCLE ( 'NONE', #192, 4.000000000000000888 ) ;
#61 = PERSON_AND_ORGANIZATION ( #153, #3 ) ;
#62 = CARTESIAN_POINT ( 'NONE',  ( 0.0000000000000000000, 0.0000000000000000000, 0.0000000000000000000 ) ) ;
#63 = LOCAL_TIME ( 15, 34, 14.00000000000000000, #191 ) ;
#64 = DIRECTION ( 'NONE',  ( 4.275831445896959482E-31, 1.000000000000000000, 1.224646799147353207E-16 ) ) ;
#65 = APPROVAL ( #79, 'UNSPECIFIED' ) ;
#66 = FACE_OUTER_BOUND ( 'NONE', #10, .T. ) ;
#67 = ORIENTED_EDGE ( 'NONE', *, *, #163, .T. ) ;
#68 = PRODUCT_DEFINITION_FORMATION_WITH_SPECIFIED_SOURCE ( 'ANY', '', #41, .NOT_KNOWN. ) ;
#69 = ORIENTED_EDGE ( 'NONE', *, *, #172, .F. ) ;
#70 = VERTEX_POINT ( 'NONE', #151 ) ;
#71 = CLOSED_SHELL ( 'NONE', ( #178, #42, #150 ) ) ;
#72 = AXIS2_PLACEMENT_3D ( 'NONE', #180, #25, #37 ) ;
#73 = CARTESIAN_POINT ( 'NONE',  ( 3.072503578181957353E-13, -1.077689183249670724E-14, 88.00000000000000000 ) ) ;
#74 = AXIS2_PLACEMENT_3D ( 'NONE', #141, #156, #155 ) ;
#75 = MECHANICAL_CONTEXT ( 'NONE', #146, 'mechanical' ) ;
#76 = APPLICATION_PROTOCOL_DEFINITION ( 'international standard', 'config_control_design', 1994, #114 ) ;
#77 = APPROVAL_STATUS ( 'not_yet_approved' ) ;
#78 = CC_DESIGN_APPROVAL ( #189, ( #142 ) ) ;
#79 = APPROVAL_STATUS ( 'not_yet_approved' ) ;
#80 = ORIENTED_EDGE ( 'NONE', *, *, #135, .F. ) ;
#81 = EDGE_LOOP ( 'NONE', ( #9 ) ) ;
#82 = FACE_OUTER_BOUND ( 'NONE', #148, .T. ) ;
#83 = CC_DESIGN_DATE_AND_TIME_ASSIGNMENT ( #46, #93, ( #142 ) ) ;
#84 = DIRECTION ( 'NONE',  ( -3.491481338843133355E-15, 1.224646799147353207E-16, -1.000000000000000000 ) ) ;
#85 = MANIFOLD_SOLID_BREP ( 'Corps-Déplacer/Copier1[2]', #71 ) ;
#86 = APPROVAL_PERSON_ORGANIZATION ( #61, #65, #143 ) ;
#87 = VERTEX_POINT ( 'NONE', #122 ) ;
#88 = DIRECTION ( 'NONE',  ( 0.0000000000000000000, 1.000000000000000000, 0.0000000000000000000 ) ) ;
#89 = CARTESIAN_POINT ( 'NONE',  ( 1.501336975702547217E-13, -5.265981236333618470E-15, 43.00000000000000000 ) ) ;
#90 = AXIS2_PLACEMENT_3D ( 'NONE', #116, #177, #64 ) ;
#91 = CALENDAR_DATE ( 2021, 15, 10 ) ;
#92 = PERSON_AND_ORGANIZATION ( #153, #3 ) ;
#93 = DATE_TIME_ROLE ( 'classification_date' ) ;
#94 = ADVANCED_FACE ( 'NONE', ( #195, #120 ), #107, .T. ) ;
#95 = ORIENTED_EDGE ( 'NONE', *, *, #135, .T. ) ;
#96 = EDGE_LOOP ( 'NONE', ( #95 ) ) ;
#97 = CC_DESIGN_APPROVAL ( #23, ( #68 ) ) ;
#98 = FACE_OUTER_BOUND ( 'NONE', #24, .T. ) ;
#99 = ADVANCED_FACE ( 'NONE', ( #11 ), #55, .F. ) ;
#100 = CARTESIAN_POINT ( 'NONE',  ( 3.107418391570388560E-13, -1.089935651241144239E-14, 89.00000000000000000 ) ) ;
#101 = CC_DESIGN_DATE_AND_TIME_ASSIGNMENT ( #45, #188, ( #157 ) ) ;
#102 = CARTESIAN_POINT ( 'NONE',  ( 3.107418391570388560E-13, 2.999519565323699342E-32, 89.00000000000000000 ) ) ;
#103 = APPROVAL_PERSON_ORGANIZATION ( #92, #189, #159 ) ;
#104 = DIRECTION ( 'NONE',  ( -3.491481338843133355E-15, 1.224646799147353207E-16, -1.000000000000000000 ) ) ;
#105 = DIRECTION ( 'NONE',  ( -3.491481338843133355E-15, 1.224646799147353207E-16, -1.000000000000000000 ) ) ;
#106 = CALENDAR_DATE ( 2021, 15, 10 ) ;
#107 = CONICAL_SURFACE ( 'NONE', #179, 4.000000000000000888, 0.7853981633974473908 ) ;
#108 = ADVANCED_FACE ( 'NONE', ( #53 ), #117, .F. ) ;
#109 = PERSON_AND_ORGANIZATION_ROLE ( 'design_owner' ) ;
#110 = APPROVAL_STATUS ( 'not_yet_approved' ) ;
#111 = APPROVAL_DATE_TIME ( #123, #23 ) ;
#112 = CC_DESIGN_PERSON_AND_ORGANIZATION_ASSIGNMENT ( #128, #109, ( #41 ) ) ;
#113 = LOCAL_TIME ( 15, 34, 14.00000000000000000, #176 ) ;
#114 = APPLICATION_CONTEXT ( 'configuration controlled 3d designs of mechanical parts and assemblies' ) ;
#115 = DESIGN_CONTEXT ( 'detailed design', #114, 'design' ) ;
#116 = CARTESIAN_POINT ( 'NONE',  ( 0.0000000000000000000, 0.0000000000000000000, 0.0000000000000000000 ) ) ;
#117 = PLANE ( 'NONE',  #149 ) ;
#118 = CC_DESIGN_APPROVAL ( #65, ( #157 ) ) ;
#119 = DIRECTION ( 'NONE',  ( 0.0000000000000000000, 1.000000000000000000, 0.0000000000000000000 ) ) ;
#120 = FACE_BOUND ( 'NONE', #50, .T. ) ;
#121 = DIRECTION ( 'NONE',  ( 0.0000000000000000000, 1.000000000000000000, 0.0000000000000000000 ) ) ;
#122 = CARTESIAN_POINT ( 'NONE',  ( 3.107418391570388560E-13, 3.999999999999989786, 89.00000000000000000 ) ) ;
#123 = DATE_AND_TIME ( #127, #126 ) ;
#124 = PERSON_AND_ORGANIZATION ( #153, #3 ) ;
#125 = PERSON_AND_ORGANIZATION_ROLE ( 'creator' ) ;
#126 = LOCAL_TIME ( 15, 34, 14.00000000000000000, #43 ) ;
#127 = CALENDAR_DATE ( 2021, 15, 10 ) ;
#128 = PERSON_AND_ORGANIZATION ( #153, #3 ) ;
#129 = LOCAL_TIME ( 15, 34, 14.00000000000000000, #162 ) ;
#130 = EDGE_LOOP ( 'NONE', ( #196 ) ) ;
#131 = CARTESIAN_POINT ( 'NONE',  ( 0.0000000000000000000, 0.0000000000000000000, 0.0000000000000000000 ) ) ;
#132 = CYLINDRICAL_SURFACE ( 'NONE', #154, 4.999999999999992006 ) ;
#133 = AXIS2_PLACEMENT_3D ( 'NONE', #73, #200, #198 ) ;
#134 = LOCAL_TIME ( 15, 34, 14.00000000000000000, #33 ) ;
#135 = EDGE_CURVE ( 'NONE', #70, #70, #166, .T. ) ;
#136 = ORIENTED_EDGE ( 'NONE', *, *, #184, .T. ) ;
#137 =( LENGTH_UNIT ( ) NAMED_UNIT ( * ) SI_UNIT ( .MILLI., .METRE. ) );
#138 = APPROVAL_PERSON_ORGANIZATION ( #58, #23, #173 ) ;
#139 = CARTESIAN_POINT ( 'NONE',  ( 6.353976404174118458E-15, 4.999999999999989342, 1.819851171331032580 ) ) ;
#140 = CARTESIAN_POINT ( 'NONE',  ( 1.501336975702547217E-13, -5.265981236333618470E-15, 43.00000000000000000 ) ) ;
#141 = CARTESIAN_POINT ( 'NONE',  ( 6.353976404174116092E-15, -2.228674911895110024E-16, 1.819851171331031914 ) ) ;
#142 = SECURITY_CLASSIFICATION ( '', '', #185 ) ;
#143 = APPROVAL_ROLE ( '' ) ;
#144 = DATE_AND_TIME ( #1, #63 ) ;
#145 = APPROVAL_DATE_TIME ( #161, #189 ) ;
#146 = APPLICATION_CONTEXT ( 'configuration controlled 3d designs of mechanical parts and assemblies' ) ;
#147 = FACE_OUTER_BOUND ( 'NONE', #96, .T. ) ;
#148 = EDGE_LOOP ( 'NONE', ( #35 ) ) ;
#149 = AXIS2_PLACEMENT_3D ( 'NONE', #102, #28, #170 ) ;
#150 = ADVANCED_FACE ( 'NONE', ( #98 ), #183, .T. ) ;
#151 = CARTESIAN_POINT ( 'NONE',  ( 3.072503578181957353E-13, 4.999999999999989342, 88.00000000000000000 ) ) ;
#152 =( NAMED_UNIT ( * ) PLANE_ANGLE_UNIT ( ) SI_UNIT ( $, .RADIAN. ) );
#153 = PERSON ( 'UNSPECIFIED', 'UNSPECIFIED', 'UNSPECIFIED', ('UNSPECIFIED'), ('UNSPECIFIED'), ('UNSPECIFIED') ) ;
#154 = AXIS2_PLACEMENT_3D ( 'NONE', #131, #194, #36 ) ;
#155 = DIRECTION ( 'NONE',  ( -4.622231866529375681E-31, -1.000000000000000000, -1.301042606982608033E-16 ) ) ;
#156 = DIRECTION ( 'NONE',  ( 3.491481338843133355E-15, -1.224646799147353207E-16, 1.000000000000000000 ) ) ;
#157 = PRODUCT_DEFINITION ( 'UNKNOWN', '', #68, #115 ) ;
#158 = PERSON_AND_ORGANIZATION_ROLE ( 'classification_officer' ) ;
#159 = APPROVAL_ROLE ( '' ) ;
#160 = CONICAL_SURFACE ( 'NONE', #74, 4.999999999999989342, 1.221730476396026388 ) ;
#161 = DATE_AND_TIME ( #91, #134 ) ;
#162 = COORDINATED_UNIVERSAL_TIME_OFFSET ( 1, 0, .AHEAD. ) ;
#163 = EDGE_CURVE ( 'NONE', #87, #87, #60, .T. ) ;
#164 = MANIFOLD_SOLID_BREP ( 'Corps-Déplacer/Copier1[1]', #199 ) ;
#165 = ORIENTED_EDGE ( 'NONE', *, *, #193, .F. ) ;
#166 = CIRCLE ( 'NONE', #133, 5.000000000000000000 ) ;
#167 = DIRECTION ( 'NONE',  ( -3.491481338843133355E-15, 1.224646799147353207E-16, -1.000000000000000000 ) ) ;
#168 = CARTESIAN_POINT ( 'NONE',  ( 3.107418391570388560E-13, -1.089935651241144239E-14, 89.00000000000000000 ) ) ;
#169 = CC_DESIGN_PERSON_AND_ORGANIZATION_ASSIGNMENT ( #124, #158, ( #142 ) ) ;
#170 = DIRECTION ( 'NONE',  ( 4.275831445896958607E-31, 1.000000000000000000, 1.224646799147353207E-16 ) ) ;
#171 = DIRECTION ( 'NONE',  ( 0.0000000000000000000, 1.000000000000000000, 0.0000000000000000000 ) ) ;
#172 = EDGE_CURVE ( 'NONE', #38, #38, #21, .T. ) ;
#173 = APPROVAL_ROLE ( '' ) ;
#174 = PERSON_AND_ORGANIZATION_ROLE ( 'design_supplier' ) ;
#175 = PERSON_AND_ORGANIZATION_ROLE ( 'creator' ) ;
#176 = COORDINATED_UNIVERSAL_TIME_OFFSET ( 1, 0, .AHEAD. ) ;
#177 = DIRECTION ( 'NONE',  ( -3.491481338843133355E-15, 1.224646799147353207E-16, -1.000000000000000000 ) ) ;
#178 = ADVANCED_FACE ( 'NONE', ( #13 ), #160, .T. ) ;
#179 = AXIS2_PLACEMENT_3D ( 'NONE', #168, #202, #171 ) ;
#180 = CARTESIAN_POINT ( 'NONE',  ( 1.501336975702547217E-13, 3.749399456654632525E-32, 43.00000000000000000 ) ) ;
#181 = AXIS2_PLACEMENT_3D ( 'NONE', #89, #167, #119 ) ;
#182 = CARTESIAN_POINT ( 'NONE',  ( 6.353976404174116092E-15, -2.228674911895110024E-16, 1.819851171331031914 ) ) ;
#183 = PLANE ( 'NONE',  #72 ) ;
#184 = EDGE_CURVE ( 'NONE', #56, #56, #187, .T. ) ;
#185 = SECURITY_CLASSIFICATION_LEVEL ( 'unclassified' ) ;
#186 = PERSON_AND_ORGANIZATION ( #153, #3 ) ;
#187 = CIRCLE ( 'NONE', #181, 4.999999999999994671 ) ;
#188 = DATE_TIME_ROLE ( 'creation_date' ) ;
#189 = APPROVAL ( #110, 'UNSPECIFIED' ) ;
#190 = PERSON_AND_ORGANIZATION ( #153, #3 ) ;
#191 = COORDINATED_UNIVERSAL_TIME_OFFSET ( 1, 0, .AHEAD. ) ;
#192 = AXIS2_PLACEMENT_3D ( 'NONE', #100, #105, #121 ) ;
#193 = EDGE_CURVE ( 'NONE', #54, #54, #57, .T. ) ;
#194 = DIRECTION ( 'NONE',  ( -3.491481338843133355E-15, 1.224646799147353207E-16, -1.000000000000000000 ) ) ;
#195 = FACE_OUTER_BOUND ( 'NONE', #20, .T. ) ;
#196 = ORIENTED_EDGE ( 'NONE', *, *, #193, .T. ) ;
#197 = AXIS2_PLACEMENT_3D ( 'NONE', #140, #104, #88 ) ;
#198 = DIRECTION ( 'NONE',  ( 0.0000000000000000000, 1.000000000000000000, 0.0000000000000000000 ) ) ;
#199 = CLOSED_SHELL ( 'NONE', ( #99, #19, #94, #108 ) ) ;
#200 = DIRECTION ( 'NONE',  ( -3.491481338843133355E-15, 1.224646799147353207E-16, -1.000000000000000000 ) ) ;
#201 = CC_DESIGN_PERSON_AND_ORGANIZATION_ASSIGNMENT ( #17, #174, ( #68 ) ) ;
#202 = DIRECTION ( 'NONE',  ( -3.491481338843133355E-15, 1.224646799147353207E-16, -1.000000000000000000 ) ) ;
#203 = CARTESIAN_POINT ( 'NONE',  ( 1.501336975702547217E-13, 4.999999999999989342, 43.00000000000000000 ) ) ;
ENDSEC;
END-ISO-10303-21;
