ISO-10303-21;
HEADER;
FILE_DESCRIPTION (( 'STEP AP203' ),
    '1' );
FILE_NAME ('29128.step',
    '2021-10-15T13:34:14',
    ( '' ),
    ( '' ),
    'SwSTEP 2.0',
    'SolidWorks 2019',
    '' );
FILE_SCHEMA (( 'CONFIG_CONTROL_DESIGN' ));
ENDSEC;

DATA;
#1 = APPLICATION_CONTEXT ( 'configuration controlled 3d designs of mechanical parts and assemblies' ) ;
#2 = APPROVAL_PERSON_ORGANIZATION ( #29, #101, #157 ) ;
#3 = DIRECTION ( 'NONE',  ( 4.275831445896958607E-31, 1.000000000000000000, 1.224646799147353454E-16 ) ) ;
#4 = EDGE_LOOP ( 'NONE', ( #162 ) ) ;
#5 = COORDINATED_UNIVERSAL_TIME_OFFSET ( 1, 0, .AHEAD. ) ;
#6 = CYLINDRICAL_SURFACE ( 'NONE', #102, 4.899999999999997691 ) ;
#7 = UNCERTAINTY_MEASURE_WITH_UNIT (LENGTH_MEASURE( 1.000000000000000082E-05 ), #128, 'distance_accuracy_value', 'NONE');
#8 = CC_DESIGN_PERSON_AND_ORGANIZATION_ASSIGNMENT ( #87, #89, ( #36 ) ) ;
#9 = DATE_AND_TIME ( #150, #114 ) ;
#10 = EDGE_LOOP ( 'NONE', ( #134 ) ) ;
#11 = COORDINATED_UNIVERSAL_TIME_OFFSET ( 1, 0, .AHEAD. ) ;
#12 = CARTESIAN_POINT ( 'NONE',  ( 1.501336975702547217E-13, 4.899999999999990585, 43.00000000000000000 ) ) ;
#13 = PRODUCT ( '29128', '29128', '', ( #91 ) ) ;
#14 = CARTESIAN_POINT ( 'NONE',  ( 1.501336975702547217E-13, 4.899999999999990585, 43.00000000000000000 ) ) ;
#15 = LOCAL_TIME ( 15, 34, 14.00000000000000000, #151 ) ;
#16 = FACE_OUTER_BOUND ( 'NONE', #194, .T. ) ;
#17 = CARTESIAN_POINT ( 'NONE',  ( 3.079486540859643493E-13, 4.899999999999990585, 88.20000000000000284 ) ) ;
#18 = APPROVAL ( #121, 'UNSPECIFIED' ) ;
#19 = AXIS2_PLACEMENT_3D ( 'NONE', #116, #95, #80 ) ;
#20 = LOCAL_TIME ( 15, 34, 14.00000000000000000, #5 ) ;
#21 = DIRECTION ( 'NONE',  ( 0.0000000000000000000, 1.000000000000000000, 0.0000000000000000000 ) ) ;
#22 =( NAMED_UNIT ( * ) SI_UNIT ( $, .STERADIAN. ) SOLID_ANGLE_UNIT ( ) );
#23 = ORIENTED_EDGE ( 'NONE', *, *, #129, .F. ) ;
#24 = SECURITY_CLASSIFICATION_LEVEL ( 'unclassified' ) ;
#25 = PRODUCT_DEFINITION_SHAPE ( 'NONE', 'NONE',  #60 ) ;
#26 = DIRECTION ( 'NONE',  ( 0.0000000000000000000, 0.0000000000000000000, 1.000000000000000000 ) ) ;
#27 = EDGE_CURVE ( 'NONE', #131, #131, #118, .T. ) ;
#28 = EDGE_LOOP ( 'NONE', ( #136 ) ) ;
#29 = PERSON_AND_ORGANIZATION ( #70, #62 ) ;
#30 =( NAMED_UNIT ( * ) PLANE_ANGLE_UNIT ( ) SI_UNIT ( $, .RADIAN. ) );
#31 = DIRECTION ( 'NONE',  ( -3.491481338843133355E-15, 1.224646799147353207E-16, -1.000000000000000000 ) ) ;
#32 = CARTESIAN_POINT ( 'NONE',  ( 1.501336975702547217E-13, 3.674411467521540192E-32, 43.00000000000000000 ) ) ;
#33 = DIRECTION ( 'NONE',  ( -3.491481338843133355E-15, 1.224646799147353207E-16, -1.000000000000000000 ) ) ;
#34 = CONICAL_SURFACE ( 'NONE', #147, 4.899999999999990585, 1.221730476396026388 ) ;
#35 = CARTESIAN_POINT ( 'NONE',  ( 6.226896876090634164E-15, -2.184101413657207498E-16, 1.783454147904411480 ) ) ;
#36 = SECURITY_CLASSIFICATION ( '', '', #24 ) ;
#37 = PERSON_AND_ORGANIZATION_ROLE ( 'creator' ) ;
#38 = EDGE_LOOP ( 'NONE', ( #156 ) ) ;
#39 = COORDINATED_UNIVERSAL_TIME_OFFSET ( 1, 0, .AHEAD. ) ;
#40 = CC_DESIGN_PERSON_AND_ORGANIZATION_ASSIGNMENT ( #127, #141, ( #60 ) ) ;
#41 = PERSON_AND_ORGANIZATION ( #70, #62 ) ;
#42 = ORIENTED_EDGE ( 'NONE', *, *, #51, .F. ) ;
#43 = CARTESIAN_POINT ( 'NONE',  ( 0.0000000000000000000, 0.0000000000000000000, 0.0000000000000000000 ) ) ;
#44 = CARTESIAN_POINT ( 'NONE',  ( 3.107418391570388560E-13, 3.074507554456792222E-32, 89.00000000000000000 ) ) ;
#45 = DIRECTION ( 'NONE',  ( 0.0000000000000000000, 1.000000000000000000, 0.0000000000000000000 ) ) ;
#46 = CARTESIAN_POINT ( 'NONE',  ( 3.107418391570388560E-13, -1.089935651241144239E-14, 89.00000000000000000 ) ) ;
#47 = CARTESIAN_POINT ( 'NONE',  ( 6.226896876090636531E-15, 4.899999999999990585, 1.783454147904412146 ) ) ;
#48 = CLOSED_SHELL ( 'NONE', ( #83, #65, #67 ) ) ;
#49 = CIRCLE ( 'NONE', #99, 4.899999999999995914 ) ;
#50 = ADVANCED_FACE ( 'NONE', ( #84, #152 ), #6, .T. ) ;
#51 = EDGE_CURVE ( 'NONE', #187, #187, #188, .T. ) ;
#52 = CIRCLE ( 'NONE', #171, 4.100000000000001421 ) ;
#53 = CC_DESIGN_PERSON_AND_ORGANIZATION_ASSIGNMENT ( #195, #54, ( #13 ) ) ;
#54 = PERSON_AND_ORGANIZATION_ROLE ( 'design_owner' ) ;
#55 = DIRECTION ( 'NONE',  ( 1.000000000000000000, 0.0000000000000000000, 0.0000000000000000000 ) ) ;
#56 = SHAPE_DEFINITION_REPRESENTATION ( #25, #201 ) ;
#57 = EDGE_LOOP ( 'NONE', ( #23 ) ) ;
#58 = ORIENTED_EDGE ( 'NONE', *, *, #164, .F. ) ;
#59 = PLANE ( 'NONE',  #181 ) ;
#60 = PRODUCT_DEFINITION ( 'UNKNOWN', '', #149, #196 ) ;
#61 = DIRECTION ( 'NONE',  ( -3.491481338843133355E-15, 1.224646799147353207E-16, -1.000000000000000000 ) ) ;
#62 = ORGANIZATION ( 'UNSPECIFIED', 'UNSPECIFIED', '' ) ;
#63 = DIRECTION ( 'NONE',  ( -4.716563129111607212E-31, -1.000000000000000000, -1.327594496921028429E-16 ) ) ;
#64 = DIRECTION ( 'NONE',  ( 4.275831445896958607E-31, 1.000000000000000000, 1.224646799147353207E-16 ) ) ;
#65 = ADVANCED_FACE ( 'NONE', ( #77, #197 ), #113, .T. ) ;
#66 = AXIS2_PLACEMENT_3D ( 'NONE', #46, #61, #172 ) ;
#67 = ADVANCED_FACE ( 'NONE', ( #16 ), #130, .T. ) ;
#68 = CARTESIAN_POINT ( 'NONE',  ( 3.079486540859643493E-13, -1.080138476847965553E-14, 88.20000000000000284 ) ) ;
#69 = DATE_AND_TIME ( #105, #155 ) ;
#70 = PERSON ( 'UNSPECIFIED', 'UNSPECIFIED', 'UNSPECIFIED', ('UNSPECIFIED'), ('UNSPECIFIED'), ('UNSPECIFIED') ) ;
#71 = CARTESIAN_POINT ( 'NONE',  ( 0.0000000000000000000, 0.0000000000000000000, 0.0000000000000000000 ) ) ;
#72 = APPROVAL_ROLE ( '' ) ;
#73 = AXIS2_PLACEMENT_3D ( 'NONE', #35, #31, #202 ) ;
#74 = FACE_OUTER_BOUND ( 'NONE', #106, .T. ) ;
#75 = ADVANCED_FACE ( 'NONE', ( #74 ), #200, .F. ) ;
#76 = VERTEX_POINT ( 'NONE', #47 ) ;
#77 = FACE_OUTER_BOUND ( 'NONE', #57, .T. ) ;
#78 = AXIS2_PLACEMENT_3D ( 'NONE', #43, #26, #55 ) ;
#79 = CC_DESIGN_PERSON_AND_ORGANIZATION_ASSIGNMENT ( #166, #111, ( #149 ) ) ;
#80 = DIRECTION ( 'NONE',  ( 4.275831445896958607E-31, 1.000000000000000000, 1.224646799147353207E-16 ) ) ;
#81 = DIRECTION ( 'NONE',  ( -4.275831445896958607E-31, -1.000000000000000000, -1.224646799147353207E-16 ) ) ;
#82 = APPROVAL_PERSON_ORGANIZATION ( #112, #18, #72 ) ;
#83 = ADVANCED_FACE ( 'NONE', ( #117 ), #34, .T. ) ;
#84 = FACE_OUTER_BOUND ( 'NONE', #125, .T. ) ;
#85 = ADVANCED_FACE ( 'NONE', ( #185, #98 ), #92, .T. ) ;
#86 = APPLICATION_PROTOCOL_DEFINITION ( 'international standard', 'config_control_design', 1994, #1 ) ;
#87 = PERSON_AND_ORGANIZATION ( #70, #62 ) ;
#88 = CARTESIAN_POINT ( 'NONE',  ( 1.501336975702547217E-13, -5.265981236333618470E-15, 43.00000000000000000 ) ) ;
#89 = PERSON_AND_ORGANIZATION_ROLE ( 'classification_officer' ) ;
#90 = DIRECTION ( 'NONE',  ( -3.491481338843133355E-15, 1.224646799147353207E-16, -1.000000000000000000 ) ) ;
#91 = MECHANICAL_CONTEXT ( 'NONE', #1, 'mechanical' ) ;
#92 = CONICAL_SURFACE ( 'NONE', #66, 4.100000000000001421, 0.7853981633974510546 ) ;
#93 = CC_DESIGN_DATE_AND_TIME_ASSIGNMENT ( #170, #183, ( #60 ) ) ;
#94 = CALENDAR_DATE ( 2021, 15, 10 ) ;
#95 = DIRECTION ( 'NONE',  ( -3.491481338843133355E-15, 1.224646799147353207E-16, -1.000000000000000000 ) ) ;
#96 = CARTESIAN_POINT ( 'NONE',  ( 1.501336975702547217E-13, -5.265981236333618470E-15, 43.00000000000000000 ) ) ;
#97 = CC_DESIGN_PERSON_AND_ORGANIZATION_ASSIGNMENT ( #41, #37, ( #149 ) ) ;
#98 = FACE_BOUND ( 'NONE', #4, .T. ) ;
#99 = AXIS2_PLACEMENT_3D ( 'NONE', #96, #33, #159 ) ;
#100 = VERTEX_POINT ( 'NONE', #14 ) ;
#101 = APPROVAL ( #120, 'UNSPECIFIED' ) ;
#102 = AXIS2_PLACEMENT_3D ( 'NONE', #71, #154, #3 ) ;
#103 = CC_DESIGN_APPROVAL ( #18, ( #60 ) ) ;
#104 = EDGE_LOOP ( 'NONE', ( #42 ) ) ;
#105 = CALENDAR_DATE ( 2021, 15, 10 ) ;
#106 = EDGE_LOOP ( 'NONE', ( #190 ) ) ;
#107 = APPROVAL_DATE_TIME ( #143, #119 ) ;
#108 = CLOSED_SHELL ( 'NONE', ( #75, #50, #85, #191 ) ) ;
#109 = LOCAL_TIME ( 15, 34, 14.00000000000000000, #179 ) ;
#110 = ORIENTED_EDGE ( 'NONE', *, *, #199, .F. ) ;
#111 = PERSON_AND_ORGANIZATION_ROLE ( 'design_supplier' ) ;
#112 = PERSON_AND_ORGANIZATION ( #70, #62 ) ;
#113 = CYLINDRICAL_SURFACE ( 'NONE', #19, 4.899999999999993250 ) ;
#114 = LOCAL_TIME ( 15, 34, 14.00000000000000000, #39 ) ;
#115 = DIRECTION ( 'NONE',  ( -3.491481338843133355E-15, 1.224646799147353207E-16, -1.000000000000000000 ) ) ;
#116 = CARTESIAN_POINT ( 'NONE',  ( 0.0000000000000000000, 0.0000000000000000000, 0.0000000000000000000 ) ) ;
#117 = FACE_OUTER_BOUND ( 'NONE', #10, .T. ) ;
#118 = CIRCLE ( 'NONE', #140, 4.899999999999995914 ) ;
#119 = APPROVAL ( #184, 'UNSPECIFIED' ) ;
#120 = APPROVAL_STATUS ( 'not_yet_approved' ) ;
#121 = APPROVAL_STATUS ( 'not_yet_approved' ) ;
#122 = PERSON_AND_ORGANIZATION ( #70, #62 ) ;
#123 = CC_DESIGN_APPROVAL ( #101, ( #36 ) ) ;
#124 = EDGE_LOOP ( 'NONE', ( #58 ) ) ;
#125 = EDGE_LOOP ( 'NONE', ( #110 ) ) ;
#126 = MANIFOLD_SOLID_BREP ( 'Corps-Déplacer/Copier1[1]', #108 ) ;
#127 = PERSON_AND_ORGANIZATION ( #70, #62 ) ;
#128 =( LENGTH_UNIT ( ) NAMED_UNIT ( * ) SI_UNIT ( .MILLI., .METRE. ) );
#129 = EDGE_CURVE ( 'NONE', #76, #76, #203, .T. ) ;
#130 = PLANE ( 'NONE',  #177 ) ;
#131 = VERTEX_POINT ( 'NONE', #12 ) ;
#132 = AXIS2_PLACEMENT_3D ( 'NONE', #68, #192, #182 ) ;
#133 = APPROVAL_PERSON_ORGANIZATION ( #122, #119, #193 ) ;
#134 = ORIENTED_EDGE ( 'NONE', *, *, #129, .T. ) ;
#135 = AXIS2_PLACEMENT_3D ( 'NONE', #144, #146, #81 ) ;
#136 = ORIENTED_EDGE ( 'NONE', *, *, #51, .T. ) ;
#137 = APPROVAL_DATE_TIME ( #9, #18 ) ;
#138 = APPROVAL_DATE_TIME ( #69, #101 ) ;
#139 = CC_DESIGN_DATE_AND_TIME_ASSIGNMENT ( #169, #163, ( #36 ) ) ;
#140 = AXIS2_PLACEMENT_3D ( 'NONE', #88, #90, #21 ) ;
#141 = PERSON_AND_ORGANIZATION_ROLE ( 'creator' ) ;
#142 = DIRECTION ( 'NONE',  ( 3.491481338843133355E-15, -1.224646799147353207E-16, 1.000000000000000000 ) ) ;
#143 = DATE_AND_TIME ( #94, #15 ) ;
#144 = CARTESIAN_POINT ( 'NONE',  ( 1.501336975702547217E-13, 3.674411467521540192E-32, 43.00000000000000000 ) ) ;
#145 = CARTESIAN_POINT ( 'NONE',  ( 6.226896876090634164E-15, -2.184101413657207498E-16, 1.783454147904411480 ) ) ;
#146 = DIRECTION ( 'NONE',  ( 3.491481338843133355E-15, -1.224646799147353207E-16, 1.000000000000000000 ) ) ;
#147 = AXIS2_PLACEMENT_3D ( 'NONE', #145, #142, #63 ) ;
#148 = PRODUCT_RELATED_PRODUCT_CATEGORY ( 'detail', '', ( #13 ) ) ;
#149 = PRODUCT_DEFINITION_FORMATION_WITH_SPECIFIED_SOURCE ( 'ANY', '', #13, .NOT_KNOWN. ) ;
#150 = CALENDAR_DATE ( 2021, 15, 10 ) ;
#151 = COORDINATED_UNIVERSAL_TIME_OFFSET ( 1, 0, .AHEAD. ) ;
#152 = FACE_OUTER_BOUND ( 'NONE', #28, .T. ) ;
#153 = CALENDAR_DATE ( 2021, 15, 10 ) ;
#154 = DIRECTION ( 'NONE',  ( -3.491481338843133355E-15, 1.224646799147353207E-16, -1.000000000000000000 ) ) ;
#155 = LOCAL_TIME ( 15, 34, 14.00000000000000000, #11 ) ;
#156 = ORIENTED_EDGE ( 'NONE', *, *, #27, .T. ) ;
#157 = APPROVAL_ROLE ( '' ) ;
#158 = DIRECTION ( 'NONE',  ( 3.491481338843133355E-15, -1.224646799147353207E-16, 1.000000000000000000 ) ) ;
#159 = DIRECTION ( 'NONE',  ( 0.0000000000000000000, 1.000000000000000000, 0.0000000000000000000 ) ) ;
#160 = DIRECTION ( 'NONE',  ( -3.491481338843133355E-15, 1.224646799147353207E-16, -1.000000000000000000 ) ) ;
#161 = APPLICATION_CONTEXT ( 'configuration controlled 3d designs of mechanical parts and assemblies' ) ;
#162 = ORIENTED_EDGE ( 'NONE', *, *, #164, .T. ) ;
#163 = DATE_TIME_ROLE ( 'classification_date' ) ;
#164 = EDGE_CURVE ( 'NONE', #198, #198, #52, .T. ) ;
#165 =( GEOMETRIC_REPRESENTATION_CONTEXT ( 3 ) GLOBAL_UNCERTAINTY_ASSIGNED_CONTEXT ( ( #7 ) ) GLOBAL_UNIT_ASSIGNED_CONTEXT ( ( #128, #30, #22 ) ) REPRESENTATION_CONTEXT ( 'NONE', 'WORKASPACE' ) );
#166 = PERSON_AND_ORGANIZATION ( #70, #62 ) ;
#167 = ORIENTED_EDGE ( 'NONE', *, *, #27, .F. ) ;
#168 = APPLICATION_PROTOCOL_DEFINITION ( 'international standard', 'config_control_design', 1994, #161 ) ;
#169 = DATE_AND_TIME ( #153, #20 ) ;
#170 = DATE_AND_TIME ( #180, #109 ) ;
#171 = AXIS2_PLACEMENT_3D ( 'NONE', #173, #160, #45 ) ;
#172 = DIRECTION ( 'NONE',  ( 0.0000000000000000000, 1.000000000000000000, 0.0000000000000000000 ) ) ;
#173 = CARTESIAN_POINT ( 'NONE',  ( 3.107418391570388560E-13, -1.089935651241144239E-14, 89.00000000000000000 ) ) ;
#174 = DIRECTION ( 'NONE',  ( -4.275831445896958607E-31, -1.000000000000000000, -1.224646799147353207E-16 ) ) ;
#175 = CARTESIAN_POINT ( 'NONE',  ( 3.107418391570388560E-13, 4.099999999999989875, 89.00000000000000000 ) ) ;
#176 = CC_DESIGN_APPROVAL ( #119, ( #149 ) ) ;
#177 = AXIS2_PLACEMENT_3D ( 'NONE', #32, #158, #174 ) ;
#178 = CC_DESIGN_SECURITY_CLASSIFICATION ( #36, ( #149 ) ) ;
#179 = COORDINATED_UNIVERSAL_TIME_OFFSET ( 1, 0, .AHEAD. ) ;
#180 = CALENDAR_DATE ( 2021, 15, 10 ) ;
#181 = AXIS2_PLACEMENT_3D ( 'NONE', #44, #115, #64 ) ;
#182 = DIRECTION ( 'NONE',  ( 0.0000000000000000000, 1.000000000000000000, 0.0000000000000000000 ) ) ;
#183 = DATE_TIME_ROLE ( 'creation_date' ) ;
#184 = APPROVAL_STATUS ( 'not_yet_approved' ) ;
#185 = FACE_OUTER_BOUND ( 'NONE', #104, .T. ) ;
#186 = FACE_OUTER_BOUND ( 'NONE', #124, .T. ) ;
#187 = VERTEX_POINT ( 'NONE', #17 ) ;
#188 = CIRCLE ( 'NONE', #132, 4.900000000000000355 ) ;
#189 = MANIFOLD_SOLID_BREP ( 'Corps-Déplacer/Copier1[2]', #48 ) ;
#190 = ORIENTED_EDGE ( 'NONE', *, *, #199, .T. ) ;
#191 = ADVANCED_FACE ( 'NONE', ( #186 ), #59, .F. ) ;
#192 = DIRECTION ( 'NONE',  ( -3.491481338843133355E-15, 1.224646799147353207E-16, -1.000000000000000000 ) ) ;
#193 = APPROVAL_ROLE ( '' ) ;
#194 = EDGE_LOOP ( 'NONE', ( #167 ) ) ;
#195 = PERSON_AND_ORGANIZATION ( #70, #62 ) ;
#196 = DESIGN_CONTEXT ( 'detailed design', #161, 'design' ) ;
#197 = FACE_OUTER_BOUND ( 'NONE', #38, .T. ) ;
#198 = VERTEX_POINT ( 'NONE', #175 ) ;
#199 = EDGE_CURVE ( 'NONE', #100, #100, #49, .T. ) ;
#200 = PLANE ( 'NONE',  #135 ) ;
#201 = ADVANCED_BREP_SHAPE_REPRESENTATION ( '29128', ( #126, #189, #78 ), #165 ) ;
#202 = DIRECTION ( 'NONE',  ( 4.716563129111607212E-31, 1.000000000000000000, 1.327594496921028429E-16 ) ) ;
#203 = CIRCLE ( 'NONE', #73, 4.899999999999990585 ) ;
ENDSEC;
END-ISO-10303-21;
