ISO-10303-21;
HEADER;
FILE_DESCRIPTION (( 'STEP AP203' ),
    '1' );
FILE_NAME ('29127.step',
    '2021-10-15T13:34:13',
    ( '' ),
    ( '' ),
    'SwSTEP 2.0',
    'SolidWorks 2019',
    '' );
FILE_SCHEMA (( 'CONFIG_CONTROL_DESIGN' ));
ENDSEC;

DATA;
#1 = CC_DESIGN_PERSON_AND_ORGANIZATION_ASSIGNMENT ( #10, #74, ( #134 ) ) ;
#2 = CARTESIAN_POINT ( 'NONE',  ( 2.904912473917487456E-13, -1.018906136890598294E-14, 83.20000000000001705 ) ) ;
#3 = APPROVAL_PERSON_ORGANIZATION ( #54, #123, #92 ) ;
#4 = DIRECTION ( 'NONE',  ( -3.491481338843133355E-15, 1.224646799147353454E-16, -1.000000000000000000 ) ) ;
#5 = DIRECTION ( 'NONE',  ( 0.0000000000000000000, 1.000000000000000000, 0.0000000000000000000 ) ) ;
#6 = DIRECTION ( 'NONE',  ( 0.0000000000000000000, 1.000000000000000000, 0.0000000000000000000 ) ) ;
#7 = COORDINATED_UNIVERSAL_TIME_OFFSET ( 1, 0, .AHEAD. ) ;
#8 = AXIS2_PLACEMENT_3D ( 'NONE', #80, #31, #101 ) ;
#9 = COORDINATED_UNIVERSAL_TIME_OFFSET ( 1, 0, .AHEAD. ) ;
#10 = PERSON_AND_ORGANIZATION ( #202, #107 ) ;
#11 = COORDINATED_UNIVERSAL_TIME_OFFSET ( 1, 0, .AHEAD. ) ;
#12 = ADVANCED_BREP_SHAPE_REPRESENTATION ( '29127', ( #32, #111, #157 ), #34 ) ;
#13 = COORDINATED_UNIVERSAL_TIME_OFFSET ( 1, 0, .AHEAD. ) ;
#14 = CARTESIAN_POINT ( 'NONE',  ( 6.036277583965409695E-15, -2.117241166300354572E-16, 1.728858612764480274 ) ) ;
#15 = CC_DESIGN_APPROVAL ( #41, ( #174 ) ) ;
#16 = ORIENTED_EDGE ( 'NONE', *, *, #18, .T. ) ;
#17 = PRODUCT ( '29127', '29127', '', ( #27 ) ) ;
#18 = EDGE_CURVE ( 'NONE', #82, #82, #126, .T. ) ;
#19 = AXIS2_PLACEMENT_3D ( 'NONE', #108, #87, #38 ) ;
#20 = FACE_OUTER_BOUND ( 'NONE', #61, .T. ) ;
#21 = CC_DESIGN_DATE_AND_TIME_ASSIGNMENT ( #113, #115, ( #196 ) ) ;
#22 = FACE_OUTER_BOUND ( 'NONE', #35, .T. ) ;
#23 = CC_DESIGN_SECURITY_CLASSIFICATION ( #196, ( #174 ) ) ;
#24 = PLANE ( 'NONE',  #163 ) ;
#25 = CARTESIAN_POINT ( 'NONE',  ( 0.0000000000000000000, 0.0000000000000000000, 0.0000000000000000000 ) ) ;
#26 = CALENDAR_DATE ( 2021, 15, 10 ) ;
#27 = MECHANICAL_CONTEXT ( 'NONE', #160, 'mechanical' ) ;
#28 = ADVANCED_FACE ( 'NONE', ( #135 ), #162, .F. ) ;
#29 = CALENDAR_DATE ( 2021, 15, 10 ) ;
#30 = DATE_AND_TIME ( #95, #138 ) ;
#31 = DIRECTION ( 'NONE',  ( -3.491481338843133355E-15, 1.224646799147353454E-16, -1.000000000000000000 ) ) ;
#32 = MANIFOLD_SOLID_BREP ( 'Corps-Déplacer/Copier1[1]', #94 ) ;
#33 = ORIENTED_EDGE ( 'NONE', *, *, #18, .F. ) ;
#34 =( GEOMETRIC_REPRESENTATION_CONTEXT ( 3 ) GLOBAL_UNCERTAINTY_ASSIGNED_CONTEXT ( ( #75 ) ) GLOBAL_UNIT_ASSIGNED_CONTEXT ( ( #165, #191, #51 ) ) REPRESENTATION_CONTEXT ( 'NONE', 'WORKASPACE' ) );
#35 = EDGE_LOOP ( 'NONE', ( #176 ) ) ;
#36 = CARTESIAN_POINT ( 'NONE',  ( 2.932844324628232018E-13, 2.962025570757153722E-32, 84.00000000000000000 ) ) ;
#37 = CARTESIAN_POINT ( 'NONE',  ( 2.932844324628232018E-13, 3.949999999999988187, 84.00000000000000000 ) ) ;
#38 = DIRECTION ( 'NONE',  ( -4.275831445896959482E-31, -1.000000000000000000, -1.224646799147353454E-16 ) ) ;
#39 = FACE_OUTER_BOUND ( 'NONE', #64, .T. ) ;
#40 = APPROVAL_DATE_TIME ( #30, #90 ) ;
#41 = APPROVAL ( #193, 'UNSPECIFIED' ) ;
#42 = CARTESIAN_POINT ( 'NONE',  ( 0.0000000000000000000, 0.0000000000000000000, 0.0000000000000000000 ) ) ;
#43 = PERSON_AND_ORGANIZATION_ROLE ( 'classification_officer' ) ;
#44 = LOCAL_TIME ( 15, 34, 13.00000000000000000, #13 ) ;
#45 = EDGE_LOOP ( 'NONE', ( #33 ) ) ;
#46 = ADVANCED_FACE ( 'NONE', ( #172 ), #161, .T. ) ;
#47 = FACE_BOUND ( 'NONE', #97, .T. ) ;
#48 = CARTESIAN_POINT ( 'NONE',  ( 6.036277583965412062E-15, 4.749999999999989342, 1.728858612764480940 ) ) ;
#49 = AXIS2_PLACEMENT_3D ( 'NONE', #14, #154, #149 ) ;
#50 = CARTESIAN_POINT ( 'NONE',  ( 1.396592535537253342E-13, -4.898587196589413815E-15, 40.00000000000000000 ) ) ;
#51 =( NAMED_UNIT ( * ) SI_UNIT ( $, .STERADIAN. ) SOLID_ANGLE_UNIT ( ) );
#52 = DIRECTION ( 'NONE',  ( -3.491481338843133355E-15, 1.224646799147353454E-16, -1.000000000000000000 ) ) ;
#53 = EDGE_CURVE ( 'NONE', #137, #137, #170, .T. ) ;
#54 = PERSON_AND_ORGANIZATION ( #202, #107 ) ;
#55 = APPROVAL_STATUS ( 'not_yet_approved' ) ;
#56 = APPROVAL_DATE_TIME ( #144, #123 ) ;
#57 = DIRECTION ( 'NONE',  ( 1.000000000000000000, 0.0000000000000000000, 0.0000000000000000000 ) ) ;
#58 = CC_DESIGN_APPROVAL ( #123, ( #134 ) ) ;
#59 = PERSON_AND_ORGANIZATION ( #202, #107 ) ;
#60 = CC_DESIGN_PERSON_AND_ORGANIZATION_ASSIGNMENT ( #146, #72, ( #174 ) ) ;
#61 = EDGE_LOOP ( 'NONE', ( #63 ) ) ;
#62 = LOCAL_TIME ( 15, 34, 13.00000000000000000, #9 ) ;
#63 = ORIENTED_EDGE ( 'NONE', *, *, #86, .F. ) ;
#64 = EDGE_LOOP ( 'NONE', ( #77 ) ) ;
#65 = DIRECTION ( 'NONE',  ( 4.275831445896959482E-31, 1.000000000000000000, 1.224646799147353454E-16 ) ) ;
#66 = VERTEX_POINT ( 'NONE', #189 ) ;
#67 = AXIS2_PLACEMENT_3D ( 'NONE', #25, #188, #70 ) ;
#68 = FACE_OUTER_BOUND ( 'NONE', #187, .T. ) ;
#69 = EDGE_CURVE ( 'NONE', #66, #66, #181, .T. ) ;
#70 = DIRECTION ( 'NONE',  ( 4.275831445896959482E-31, 1.000000000000000000, 1.224646799147353454E-16 ) ) ;
#71 = AXIS2_PLACEMENT_3D ( 'NONE', #124, #120, #139 ) ;
#72 = PERSON_AND_ORGANIZATION_ROLE ( 'creator' ) ;
#73 = CIRCLE ( 'NONE', #118, 4.750000000000000000 ) ;
#74 = PERSON_AND_ORGANIZATION_ROLE ( 'creator' ) ;
#75 = UNCERTAINTY_MEASURE_WITH_UNIT (LENGTH_MEASURE( 1.000000000000000082E-05 ), #165, 'distance_accuracy_value', 'NONE');
#76 = EDGE_CURVE ( 'NONE', #83, #83, #73, .T. ) ;
#77 = ORIENTED_EDGE ( 'NONE', *, *, #69, .F. ) ;
#78 = ORIENTED_EDGE ( 'NONE', *, *, #86, .T. ) ;
#79 = CARTESIAN_POINT ( 'NONE',  ( 1.396592535537253342E-13, 3.561929483821902239E-32, 40.00000000000000000 ) ) ;
#80 = CARTESIAN_POINT ( 'NONE',  ( 1.396592535537253342E-13, -4.898587196589413815E-15, 40.00000000000000000 ) ) ;
#81 = CONICAL_SURFACE ( 'NONE', #142, 3.949999999999998845, 0.7853981633974520538 ) ;
#82 = VERTEX_POINT ( 'NONE', #151 ) ;
#83 = VERTEX_POINT ( 'NONE', #121 ) ;
#84 = DIRECTION ( 'NONE',  ( -3.491481338843133355E-15, 1.224646799147353454E-16, -1.000000000000000000 ) ) ;
#85 = APPROVAL_PERSON_ORGANIZATION ( #112, #41, #184 ) ;
#86 = EDGE_CURVE ( 'NONE', #178, #178, #133, .T. ) ;
#87 = DIRECTION ( 'NONE',  ( 3.491481338843133355E-15, -1.224646799147353454E-16, 1.000000000000000000 ) ) ;
#88 = DIRECTION ( 'NONE',  ( -3.491481338843133355E-15, 1.224646799147353454E-16, -1.000000000000000000 ) ) ;
#89 = APPROVAL_STATUS ( 'not_yet_approved' ) ;
#90 = APPROVAL ( #55, 'UNSPECIFIED' ) ;
#91 = PERSON_AND_ORGANIZATION_ROLE ( 'design_owner' ) ;
#92 = APPROVAL_ROLE ( '' ) ;
#93 = APPROVAL_ROLE ( '' ) ;
#94 = CLOSED_SHELL ( 'NONE', ( #28, #114, #119, #143 ) ) ;
#95 = CALENDAR_DATE ( 2021, 15, 10 ) ;
#96 = PRODUCT_RELATED_PRODUCT_CATEGORY ( 'detail', '', ( #17 ) ) ;
#97 = EDGE_LOOP ( 'NONE', ( #78 ) ) ;
#98 = EDGE_LOOP ( 'NONE', ( #175 ) ) ;
#99 = CC_DESIGN_DATE_AND_TIME_ASSIGNMENT ( #158, #195, ( #134 ) ) ;
#100 = EDGE_LOOP ( 'NONE', ( #136 ) ) ;
#101 = DIRECTION ( 'NONE',  ( 0.0000000000000000000, 1.000000000000000000, 0.0000000000000000000 ) ) ;
#102 = ORIENTED_EDGE ( 'NONE', *, *, #76, .T. ) ;
#103 = CYLINDRICAL_SURFACE ( 'NONE', #130, 4.749999999999997335 ) ;
#104 = AXIS2_PLACEMENT_3D ( 'NONE', #50, #88, #153 ) ;
#105 = CARTESIAN_POINT ( 'NONE',  ( 2.932844324628232018E-13, -1.028703311283776980E-14, 84.00000000000000000 ) ) ;
#106 = CC_DESIGN_PERSON_AND_ORGANIZATION_ASSIGNMENT ( #131, #109, ( #174 ) ) ;
#107 = ORGANIZATION ( 'UNSPECIFIED', 'UNSPECIFIED', '' ) ;
#108 = CARTESIAN_POINT ( 'NONE',  ( 1.396592535537253342E-13, 3.561929483821902239E-32, 40.00000000000000000 ) ) ;
#109 = PERSON_AND_ORGANIZATION_ROLE ( 'design_supplier' ) ;
#110 = CALENDAR_DATE ( 2021, 15, 10 ) ;
#111 = MANIFOLD_SOLID_BREP ( 'Corps-Déplacer/Copier1[2]', #203 ) ;
#112 = PERSON_AND_ORGANIZATION ( #202, #107 ) ;
#113 = DATE_AND_TIME ( #29, #44 ) ;
#114 = ADVANCED_FACE ( 'NONE', ( #150, #68 ), #103, .T. ) ;
#115 = DATE_TIME_ROLE ( 'classification_date' ) ;
#116 = EDGE_LOOP ( 'NONE', ( #16 ) ) ;
#117 = PRODUCT_DEFINITION_SHAPE ( 'NONE', 'NONE',  #134 ) ;
#118 = AXIS2_PLACEMENT_3D ( 'NONE', #2, #84, #5 ) ;
#119 = ADVANCED_FACE ( 'NONE', ( #22, #47 ), #81, .T. ) ;
#120 = DIRECTION ( 'NONE',  ( -3.491481338843133355E-15, 1.224646799147353454E-16, -1.000000000000000000 ) ) ;
#121 = CARTESIAN_POINT ( 'NONE',  ( 2.904912473917487456E-13, 4.749999999999989342, 83.20000000000001705 ) ) ;
#122 = DIRECTION ( 'NONE',  ( -3.491481338843133355E-15, 1.224646799147353454E-16, -1.000000000000000000 ) ) ;
#123 = APPROVAL ( #89, 'UNSPECIFIED' ) ;
#124 = CARTESIAN_POINT ( 'NONE',  ( 6.036277583965409695E-15, -2.117241166300354572E-16, 1.728858612764480274 ) ) ;
#125 = FACE_OUTER_BOUND ( 'NONE', #173, .T. ) ;
#126 = CIRCLE ( 'NONE', #8, 4.749999999999994671 ) ;
#127 = AXIS2_PLACEMENT_3D ( 'NONE', #79, #147, #186 ) ;
#128 = DATE_AND_TIME ( #26, #62 ) ;
#129 = SECURITY_CLASSIFICATION_LEVEL ( 'unclassified' ) ;
#130 = AXIS2_PLACEMENT_3D ( 'NONE', #140, #179, #192 ) ;
#131 = PERSON_AND_ORGANIZATION ( #202, #107 ) ;
#132 = APPLICATION_PROTOCOL_DEFINITION ( 'international standard', 'config_control_design', 1994, #160 ) ;
#133 = CIRCLE ( 'NONE', #183, 3.949999999999998845 ) ;
#134 = PRODUCT_DEFINITION ( 'UNKNOWN', '', #174, #199 ) ;
#135 = FACE_OUTER_BOUND ( 'NONE', #116, .T. ) ;
#136 = ORIENTED_EDGE ( 'NONE', *, *, #69, .T. ) ;
#137 = VERTEX_POINT ( 'NONE', #48 ) ;
#138 = LOCAL_TIME ( 15, 34, 13.00000000000000000, #7 ) ;
#139 = DIRECTION ( 'NONE',  ( 4.865507227925659764E-31, 1.000000000000000000, 1.369518533665903516E-16 ) ) ;
#140 = CARTESIAN_POINT ( 'NONE',  ( 0.0000000000000000000, 0.0000000000000000000, 0.0000000000000000000 ) ) ;
#141 = PERSON_AND_ORGANIZATION ( #202, #107 ) ;
#142 = AXIS2_PLACEMENT_3D ( 'NONE', #177, #52, #6 ) ;
#143 = ADVANCED_FACE ( 'NONE', ( #20 ), #24, .F. ) ;
#144 = DATE_AND_TIME ( #110, #152 ) ;
#145 = ADVANCED_FACE ( 'NONE', ( #39 ), #164, .T. ) ;
#146 = PERSON_AND_ORGANIZATION ( #202, #107 ) ;
#147 = DIRECTION ( 'NONE',  ( 3.491481338843133355E-15, -1.224646799147353454E-16, 1.000000000000000000 ) ) ;
#148 = ADVANCED_FACE ( 'NONE', ( #125, #166 ), #180, .T. ) ;
#149 = DIRECTION ( 'NONE',  ( -4.865507227925659764E-31, -1.000000000000000000, -1.369518533665903516E-16 ) ) ;
#150 = FACE_OUTER_BOUND ( 'NONE', #45, .T. ) ;
#151 = CARTESIAN_POINT ( 'NONE',  ( 1.396592535537253342E-13, 4.749999999999989342, 40.00000000000000000 ) ) ;
#152 = LOCAL_TIME ( 15, 34, 13.00000000000000000, #11 ) ;
#153 = DIRECTION ( 'NONE',  ( 0.0000000000000000000, 1.000000000000000000, 0.0000000000000000000 ) ) ;
#154 = DIRECTION ( 'NONE',  ( 3.491481338843133355E-15, -1.224646799147353454E-16, 1.000000000000000000 ) ) ;
#155 = APPLICATION_CONTEXT ( 'configuration controlled 3d designs of mechanical parts and assemblies' ) ;
#156 = CALENDAR_DATE ( 2021, 15, 10 ) ;
#157 = AXIS2_PLACEMENT_3D ( 'NONE', #42, #168, #57 ) ;
#158 = DATE_AND_TIME ( #156, #190 ) ;
#159 = PERSON_AND_ORGANIZATION ( #202, #107 ) ;
#160 = APPLICATION_CONTEXT ( 'configuration controlled 3d designs of mechanical parts and assemblies' ) ;
#161 = CONICAL_SURFACE ( 'NONE', #49, 4.749999999999989342, 1.221730476396026388 ) ;
#162 = PLANE ( 'NONE',  #127 ) ;
#163 = AXIS2_PLACEMENT_3D ( 'NONE', #36, #4, #65 ) ;
#164 = PLANE ( 'NONE',  #19 ) ;
#165 =( LENGTH_UNIT ( ) NAMED_UNIT ( * ) SI_UNIT ( .MILLI., .METRE. ) );
#166 = FACE_OUTER_BOUND ( 'NONE', #100, .T. ) ;
#167 = DIRECTION ( 'NONE',  ( 0.0000000000000000000, 1.000000000000000000, 0.0000000000000000000 ) ) ;
#168 = DIRECTION ( 'NONE',  ( 0.0000000000000000000, 0.0000000000000000000, 1.000000000000000000 ) ) ;
#169 = COORDINATED_UNIVERSAL_TIME_OFFSET ( 1, 0, .AHEAD. ) ;
#170 = CIRCLE ( 'NONE', #71, 4.749999999999989342 ) ;
#171 = CC_DESIGN_PERSON_AND_ORGANIZATION_ASSIGNMENT ( #159, #91, ( #17 ) ) ;
#172 = FACE_OUTER_BOUND ( 'NONE', #98, .T. ) ;
#173 = EDGE_LOOP ( 'NONE', ( #185 ) ) ;
#174 = PRODUCT_DEFINITION_FORMATION_WITH_SPECIFIED_SOURCE ( 'ANY', '', #17, .NOT_KNOWN. ) ;
#175 = ORIENTED_EDGE ( 'NONE', *, *, #53, .T. ) ;
#176 = ORIENTED_EDGE ( 'NONE', *, *, #76, .F. ) ;
#177 = CARTESIAN_POINT ( 'NONE',  ( 2.932844324628232018E-13, -1.028703311283776980E-14, 84.00000000000000000 ) ) ;
#178 = VERTEX_POINT ( 'NONE', #37 ) ;
#179 = DIRECTION ( 'NONE',  ( -3.491481338843133355E-15, 1.224646799147353454E-16, -1.000000000000000000 ) ) ;
#180 = CYLINDRICAL_SURFACE ( 'NONE', #67, 4.749999999999992006 ) ;
#181 = CIRCLE ( 'NONE', #104, 4.749999999999994671 ) ;
#182 = SHAPE_DEFINITION_REPRESENTATION ( #117, #12 ) ;
#183 = AXIS2_PLACEMENT_3D ( 'NONE', #105, #122, #167 ) ;
#184 = APPROVAL_ROLE ( '' ) ;
#185 = ORIENTED_EDGE ( 'NONE', *, *, #53, .F. ) ;
#186 = DIRECTION ( 'NONE',  ( -4.275831445896959482E-31, -1.000000000000000000, -1.224646799147353454E-16 ) ) ;
#187 = EDGE_LOOP ( 'NONE', ( #102 ) ) ;
#188 = DIRECTION ( 'NONE',  ( -3.491481338843133355E-15, 1.224646799147353454E-16, -1.000000000000000000 ) ) ;
#189 = CARTESIAN_POINT ( 'NONE',  ( 1.396592535537253342E-13, 4.749999999999989342, 40.00000000000000000 ) ) ;
#190 = LOCAL_TIME ( 15, 34, 13.00000000000000000, #169 ) ;
#191 =( NAMED_UNIT ( * ) PLANE_ANGLE_UNIT ( ) SI_UNIT ( $, .RADIAN. ) );
#192 = DIRECTION ( 'NONE',  ( 4.275831445896960358E-31, 1.000000000000000000, 1.224646799147353454E-16 ) ) ;
#193 = APPROVAL_STATUS ( 'not_yet_approved' ) ;
#194 = APPROVAL_DATE_TIME ( #128, #41 ) ;
#195 = DATE_TIME_ROLE ( 'creation_date' ) ;
#196 = SECURITY_CLASSIFICATION ( '', '', #129 ) ;
#197 = CC_DESIGN_APPROVAL ( #90, ( #196 ) ) ;
#198 = APPLICATION_PROTOCOL_DEFINITION ( 'international standard', 'config_control_design', 1994, #155 ) ;
#199 = DESIGN_CONTEXT ( 'detailed design', #155, 'design' ) ;
#200 = APPROVAL_PERSON_ORGANIZATION ( #141, #90, #93 ) ;
#201 = CC_DESIGN_PERSON_AND_ORGANIZATION_ASSIGNMENT ( #59, #43, ( #196 ) ) ;
#202 = PERSON ( 'UNSPECIFIED', 'UNSPECIFIED', 'UNSPECIFIED', ('UNSPECIFIED'), ('UNSPECIFIED'), ('UNSPECIFIED') ) ;
#203 = CLOSED_SHELL ( 'NONE', ( #46, #148, #145 ) ) ;
ENDSEC;
END-ISO-10303-21;
