ISO-10303-21;
HEADER;
FILE_DESCRIPTION (( 'STEP AP203' ),
    '1' );
FILE_NAME ('29126.step',
    '2021-10-15T13:34:13',
    ( '' ),
    ( '' ),
    'SwSTEP 2.0',
    'SolidWorks 2019',
    '' );
FILE_SCHEMA (( 'CONFIG_CONTROL_DESIGN' ));
ENDSEC;

DATA;
#1 = DIRECTION ( 'NONE',  ( 0.0000000000000000000, 1.000000000000000000, 0.0000000000000000000 ) ) ;
#2 = APPROVAL_STATUS ( 'not_yet_approved' ) ;
#3 = PRODUCT_DEFINITION_SHAPE ( 'NONE', 'NONE',  #159 ) ;
#4 = ADVANCED_FACE ( 'NONE', ( #112 ), #138, .F. ) ;
#5 = LOCAL_TIME ( 15, 34, 13.00000000000000000, #6 ) ;
#6 = COORDINATED_UNIVERSAL_TIME_OFFSET ( 1, 0, .AHEAD. ) ;
#7 = APPLICATION_PROTOCOL_DEFINITION ( 'international standard', 'config_control_design', 1994, #71 ) ;
#8 = LOCAL_TIME ( 15, 34, 13.00000000000000000, #148 ) ;
#9 = DIRECTION ( 'NONE',  ( -3.491481338843133355E-15, 1.224646799147353454E-16, -1.000000000000000000 ) ) ;
#10 = APPROVAL ( #150, 'UNSPECIFIED' ) ;
#11 = AXIS2_PLACEMENT_3D ( 'NONE', #134, #194, #163 ) ;
#12 = ORIENTED_EDGE ( 'NONE', *, *, #203, .T. ) ;
#13 = VERTEX_POINT ( 'NONE', #102 ) ;
#14 = CARTESIAN_POINT ( 'NONE',  ( 1.396592535537253342E-13, 3.374459510989170312E-32, 40.00000000000000000 ) ) ;
#15 = CONICAL_SURFACE ( 'NONE', #55, 3.699999999999999734, 0.7853981633974512766 ) ;
#16 = FACE_OUTER_BOUND ( 'NONE', #139, .T. ) ;
#17 =( NAMED_UNIT ( * ) SI_UNIT ( $, .STERADIAN. ) SOLID_ANGLE_UNIT ( ) );
#18 = CC_DESIGN_PERSON_AND_ORGANIZATION_ASSIGNMENT ( #32, #106, ( #24 ) ) ;
#19 = DIRECTION ( 'NONE',  ( 0.0000000000000000000, 1.000000000000000000, 0.0000000000000000000 ) ) ;
#20 = EDGE_CURVE ( 'NONE', #60, #60, #151, .T. ) ;
#21 = CALENDAR_DATE ( 2021, 15, 10 ) ;
#22 = PERSON_AND_ORGANIZATION ( #98, #117 ) ;
#23 = MECHANICAL_CONTEXT ( 'NONE', #71, 'mechanical' ) ;
#24 = SECURITY_CLASSIFICATION ( '', '', #35 ) ;
#25 = DIRECTION ( 'NONE',  ( -3.491481338843133355E-15, 1.224646799147353454E-16, -1.000000000000000000 ) ) ;
#26 = ADVANCED_FACE ( 'NONE', ( #169, #27 ), #15, .T. ) ;
#27 = FACE_BOUND ( 'NONE', #155, .T. ) ;
#28 = ORIENTED_EDGE ( 'NONE', *, *, #180, .T. ) ;
#29 = DIRECTION ( 'NONE',  ( -4.275831445896959482E-31, -1.000000000000000000, -1.224646799147353454E-16 ) ) ;
#30 = CARTESIAN_POINT ( 'NONE',  ( 0.0000000000000000000, 0.0000000000000000000, 0.0000000000000000000 ) ) ;
#31 = CARTESIAN_POINT ( 'NONE',  ( 2.904912473917487456E-13, -1.018906136890598294E-14, 83.20000000000001705 ) ) ;
#32 = PERSON_AND_ORGANIZATION ( #98, #117 ) ;
#33 = AXIS2_PLACEMENT_3D ( 'NONE', #145, #128, #29 ) ;
#34 = PERSON_AND_ORGANIZATION ( #98, #117 ) ;
#35 = SECURITY_CLASSIFICATION_LEVEL ( 'unclassified' ) ;
#36 = PERSON_AND_ORGANIZATION_ROLE ( 'design_owner' ) ;
#37 = EDGE_CURVE ( 'NONE', #13, #13, #173, .T. ) ;
#38 = ADVANCED_BREP_SHAPE_REPRESENTATION ( '29126', ( #153, #149, #11 ), #70 ) ;
#39 = ADVANCED_FACE ( 'NONE', ( #101 ), #186, .F. ) ;
#40 = CIRCLE ( 'NONE', #75, 3.699999999999999734 ) ;
#41 = EDGE_LOOP ( 'NONE', ( #12 ) ) ;
#42 = ORIENTED_EDGE ( 'NONE', *, *, #72, .F. ) ;
#43 = CARTESIAN_POINT ( 'NONE',  ( 2.932844324628232018E-13, 3.699999999999989519, 84.00000000000000000 ) ) ;
#44 = FACE_OUTER_BOUND ( 'NONE', #167, .T. ) ;
#45 = PRODUCT_DEFINITION_FORMATION_WITH_SPECIFIED_SOURCE ( 'ANY', '', #100, .NOT_KNOWN. ) ;
#46 = DIRECTION ( 'NONE',  ( 3.491481338843133355E-15, -1.224646799147353454E-16, 1.000000000000000000 ) ) ;
#47 = LOCAL_TIME ( 15, 34, 13.00000000000000000, #179 ) ;
#48 = DATE_AND_TIME ( #85, #92 ) ;
#49 = DATE_TIME_ROLE ( 'creation_date' ) ;
#50 = CC_DESIGN_PERSON_AND_ORGANIZATION_ASSIGNMENT ( #69, #108, ( #45 ) ) ;
#51 = APPLICATION_PROTOCOL_DEFINITION ( 'international standard', 'config_control_design', 1994, #89 ) ;
#52 = AXIS2_PLACEMENT_3D ( 'NONE', #94, #9, #54 ) ;
#53 = CARTESIAN_POINT ( 'NONE',  ( 2.932844324628232018E-13, 2.774555597924421795E-32, 84.00000000000000000 ) ) ;
#54 = DIRECTION ( 'NONE',  ( 0.0000000000000000000, 1.000000000000000000, 0.0000000000000000000 ) ) ;
#55 = AXIS2_PLACEMENT_3D ( 'NONE', #154, #74, #115 ) ;
#56 = ORIENTED_EDGE ( 'NONE', *, *, #37, .T. ) ;
#57 = CLOSED_SHELL ( 'NONE', ( #39, #130, #26, #4 ) ) ;
#58 = VERTEX_POINT ( 'NONE', #200 ) ;
#59 =( LENGTH_UNIT ( ) NAMED_UNIT ( * ) SI_UNIT ( .MILLI., .METRE. ) );
#60 = VERTEX_POINT ( 'NONE', #132 ) ;
#61 = AXIS2_PLACEMENT_3D ( 'NONE', #53, #25, #124 ) ;
#62 = VERTEX_POINT ( 'NONE', #79 ) ;
#63 = DATE_AND_TIME ( #191, #47 ) ;
#64 = PERSON_AND_ORGANIZATION_ROLE ( 'creator' ) ;
#65 = APPROVAL_PERSON_ORGANIZATION ( #152, #119, #192 ) ;
#66 = CALENDAR_DATE ( 2021, 15, 10 ) ;
#67 = APPROVAL ( #2, 'UNSPECIFIED' ) ;
#68 = APPROVAL_STATUS ( 'not_yet_approved' ) ;
#69 = PERSON_AND_ORGANIZATION ( #98, #117 ) ;
#70 =( GEOMETRIC_REPRESENTATION_CONTEXT ( 3 ) GLOBAL_UNCERTAINTY_ASSIGNED_CONTEXT ( ( #143 ) ) GLOBAL_UNIT_ASSIGNED_CONTEXT ( ( #59, #172, #17 ) ) REPRESENTATION_CONTEXT ( 'NONE', 'WORKASPACE' ) );
#71 = APPLICATION_CONTEXT ( 'configuration controlled 3d designs of mechanical parts and assemblies' ) ;
#72 = EDGE_CURVE ( 'NONE', #82, #82, #40, .T. ) ;
#73 = EDGE_LOOP ( 'NONE', ( #183 ) ) ;
#74 = DIRECTION ( 'NONE',  ( -3.491481338843133355E-15, 1.224646799147353454E-16, -1.000000000000000000 ) ) ;
#75 = AXIS2_PLACEMENT_3D ( 'NONE', #118, #120, #129 ) ;
#76 = ORIENTED_EDGE ( 'NONE', *, *, #180, .F. ) ;
#77 = PRODUCT_RELATED_PRODUCT_CATEGORY ( 'detail', '', ( #100 ) ) ;
#78 = FACE_OUTER_BOUND ( 'NONE', #125, .T. ) ;
#79 = CARTESIAN_POINT ( 'NONE',  ( 1.396592535537253342E-13, 4.499999999999989342, 40.00000000000000000 ) ) ;
#80 = DIRECTION ( 'NONE',  ( -3.491481338843133355E-15, 1.224646799147353454E-16, -1.000000000000000000 ) ) ;
#81 = DIRECTION ( 'NONE',  ( -3.491481338843133355E-15, 1.224646799147353454E-16, -1.000000000000000000 ) ) ;
#82 = VERTEX_POINT ( 'NONE', #43 ) ;
#83 = ADVANCED_FACE ( 'NONE', ( #44, #142 ), #97, .T. ) ;
#84 = COORDINATED_UNIVERSAL_TIME_OFFSET ( 1, 0, .AHEAD. ) ;
#85 = CALENDAR_DATE ( 2021, 15, 10 ) ;
#86 = DATE_TIME_ROLE ( 'classification_date' ) ;
#87 = ADVANCED_FACE ( 'NONE', ( #147 ), #158, .T. ) ;
#88 = AXIS2_PLACEMENT_3D ( 'NONE', #174, #187, #131 ) ;
#89 = APPLICATION_CONTEXT ( 'configuration controlled 3d designs of mechanical parts and assemblies' ) ;
#90 = PERSON_AND_ORGANIZATION ( #98, #117 ) ;
#91 = ORIENTED_EDGE ( 'NONE', *, *, #203, .F. ) ;
#92 = LOCAL_TIME ( 15, 34, 13.00000000000000000, #122 ) ;
#93 = EDGE_LOOP ( 'NONE', ( #76 ) ) ;
#94 = CARTESIAN_POINT ( 'NONE',  ( 1.396592535537253342E-13, -4.898587196589413815E-15, 40.00000000000000000 ) ) ;
#95 = CC_DESIGN_PERSON_AND_ORGANIZATION_ASSIGNMENT ( #34, #123, ( #45 ) ) ;
#96 = ORIENTED_EDGE ( 'NONE', *, *, #20, .T. ) ;
#97 = CYLINDRICAL_SURFACE ( 'NONE', #202, 4.499999999999992006 ) ;
#98 = PERSON ( 'UNSPECIFIED', 'UNSPECIFIED', 'UNSPECIFIED', ('UNSPECIFIED'), ('UNSPECIFIED'), ('UNSPECIFIED') ) ;
#99 = PLANE ( 'NONE',  #195 ) ;
#100 = PRODUCT ( '29126', '29126', '', ( #23 ) ) ;
#101 = FACE_OUTER_BOUND ( 'NONE', #196, .T. ) ;
#102 = CARTESIAN_POINT ( 'NONE',  ( 5.718578763756704088E-15, 4.499999999999989342, 1.637866054197928856 ) ) ;
#103 = SHAPE_DEFINITION_REPRESENTATION ( #3, #38 ) ;
#104 = APPROVAL_PERSON_ORGANIZATION ( #177, #10, #136 ) ;
#105 = DATE_AND_TIME ( #21, #140 ) ;
#106 = PERSON_AND_ORGANIZATION_ROLE ( 'classification_officer' ) ;
#107 = CC_DESIGN_SECURITY_CLASSIFICATION ( #24, ( #45 ) ) ;
#108 = PERSON_AND_ORGANIZATION_ROLE ( 'design_supplier' ) ;
#109 = EDGE_LOOP ( 'NONE', ( #56 ) ) ;
#110 = ORIENTED_EDGE ( 'NONE', *, *, #72, .T. ) ;
#111 = CLOSED_SHELL ( 'NONE', ( #87, #83, #127 ) ) ;
#112 = FACE_OUTER_BOUND ( 'NONE', #198, .T. ) ;
#113 = CC_DESIGN_DATE_AND_TIME_ASSIGNMENT ( #166, #49, ( #159 ) ) ;
#114 = CIRCLE ( 'NONE', #197, 4.500000000000000000 ) ;
#115 = DIRECTION ( 'NONE',  ( 0.0000000000000000000, 1.000000000000000000, 0.0000000000000000000 ) ) ;
#116 = CARTESIAN_POINT ( 'NONE',  ( 1.396592535537253342E-13, -4.898587196589413815E-15, 40.00000000000000000 ) ) ;
#117 = ORGANIZATION ( 'UNSPECIFIED', 'UNSPECIFIED', '' ) ;
#118 = CARTESIAN_POINT ( 'NONE',  ( 2.932844324628232018E-13, -1.028703311283776980E-14, 84.00000000000000000 ) ) ;
#119 = APPROVAL ( #68, 'UNSPECIFIED' ) ;
#120 = DIRECTION ( 'NONE',  ( -3.491481338843133355E-15, 1.224646799147353454E-16, -1.000000000000000000 ) ) ;
#121 = APPROVAL_DATE_TIME ( #193, #10 ) ;
#122 = COORDINATED_UNIVERSAL_TIME_OFFSET ( 1, 0, .AHEAD. ) ;
#123 = PERSON_AND_ORGANIZATION_ROLE ( 'creator' ) ;
#124 = DIRECTION ( 'NONE',  ( 4.275831445896959482E-31, 1.000000000000000000, 1.224646799147353454E-16 ) ) ;
#125 = EDGE_LOOP ( 'NONE', ( #28 ) ) ;
#126 = FACE_OUTER_BOUND ( 'NONE', #73, .T. ) ;
#127 = ADVANCED_FACE ( 'NONE', ( #16 ), #99, .T. ) ;
#128 = DIRECTION ( 'NONE',  ( 3.491481338843133355E-15, -1.224646799147353454E-16, 1.000000000000000000 ) ) ;
#129 = DIRECTION ( 'NONE',  ( 0.0000000000000000000, 1.000000000000000000, 0.0000000000000000000 ) ) ;
#130 = ADVANCED_FACE ( 'NONE', ( #126, #78 ), #199, .T. ) ;
#131 = DIRECTION ( 'NONE',  ( 3.423875456688427274E-31, 1.000000000000000000, 1.445602896647342614E-16 ) ) ;
#132 = CARTESIAN_POINT ( 'NONE',  ( 1.396592535537253342E-13, 4.499999999999989342, 40.00000000000000000 ) ) ;
#133 = PERSON_AND_ORGANIZATION ( #98, #117 ) ;
#134 = CARTESIAN_POINT ( 'NONE',  ( 0.0000000000000000000, 0.0000000000000000000, 0.0000000000000000000 ) ) ;
#135 = AXIS2_PLACEMENT_3D ( 'NONE', #201, #156, #161 ) ;
#136 = APPROVAL_ROLE ( '' ) ;
#137 = CIRCLE ( 'NONE', #146, 4.499999999999994671 ) ;
#138 = PLANE ( 'NONE',  #61 ) ;
#139 = EDGE_LOOP ( 'NONE', ( #91 ) ) ;
#140 = LOCAL_TIME ( 15, 34, 13.00000000000000000, #84 ) ;
#141 = ORIENTED_EDGE ( 'NONE', *, *, #37, .F. ) ;
#142 = FACE_OUTER_BOUND ( 'NONE', #41, .T. ) ;
#143 = UNCERTAINTY_MEASURE_WITH_UNIT (LENGTH_MEASURE( 1.000000000000000082E-05 ), #59, 'distance_accuracy_value', 'NONE');
#144 = CC_DESIGN_PERSON_AND_ORGANIZATION_ASSIGNMENT ( #90, #64, ( #159 ) ) ;
#145 = CARTESIAN_POINT ( 'NONE',  ( 1.396592535537253342E-13, 3.374459510989170312E-32, 40.00000000000000000 ) ) ;
#146 = AXIS2_PLACEMENT_3D ( 'NONE', #116, #81, #19 ) ;
#147 = FACE_OUTER_BOUND ( 'NONE', #109, .T. ) ;
#148 = COORDINATED_UNIVERSAL_TIME_OFFSET ( 1, 0, .AHEAD. ) ;
#149 = MANIFOLD_SOLID_BREP ( 'Corps-Déplacer/Copier1[2]', #111 ) ;
#150 = APPROVAL_STATUS ( 'not_yet_approved' ) ;
#151 = CIRCLE ( 'NONE', #52, 4.499999999999994671 ) ;
#152 = PERSON_AND_ORGANIZATION ( #98, #117 ) ;
#153 = MANIFOLD_SOLID_BREP ( 'Corps-Déplacer/Copier1[1]', #57 ) ;
#154 = CARTESIAN_POINT ( 'NONE',  ( 2.932844324628232018E-13, -1.028703311283776980E-14, 84.00000000000000000 ) ) ;
#155 = EDGE_LOOP ( 'NONE', ( #110 ) ) ;
#156 = DIRECTION ( 'NONE',  ( -3.491481338843133355E-15, 1.224646799147353454E-16, -1.000000000000000000 ) ) ;
#157 = DIRECTION ( 'NONE',  ( -3.491481338843133355E-15, 1.224646799147353454E-16, -1.000000000000000000 ) ) ;
#158 = CONICAL_SURFACE ( 'NONE', #189, 4.499999999999989342, 1.221730476396026388 ) ;
#159 = PRODUCT_DEFINITION ( 'UNKNOWN', '', #45, #175 ) ;
#160 = CARTESIAN_POINT ( 'NONE',  ( 5.718578763756702510E-15, -2.005807420705598627E-16, 1.637866054197928189 ) ) ;
#161 = DIRECTION ( 'NONE',  ( 4.275831445896959482E-31, 1.000000000000000000, 1.224646799147353207E-16 ) ) ;
#162 = APPROVAL_ROLE ( '' ) ;
#163 = DIRECTION ( 'NONE',  ( 1.000000000000000000, 0.0000000000000000000, 0.0000000000000000000 ) ) ;
#164 = CC_DESIGN_APPROVAL ( #10, ( #159 ) ) ;
#165 = APPROVAL_DATE_TIME ( #48, #119 ) ;
#166 = DATE_AND_TIME ( #66, #5 ) ;
#167 = EDGE_LOOP ( 'NONE', ( #141 ) ) ;
#168 = CC_DESIGN_APPROVAL ( #119, ( #24 ) ) ;
#169 = FACE_OUTER_BOUND ( 'NONE', #93, .T. ) ;
#170 = DIRECTION ( 'NONE',  ( -4.275831445896959482E-31, -1.000000000000000000, -1.224646799147353454E-16 ) ) ;
#171 = CC_DESIGN_PERSON_AND_ORGANIZATION_ASSIGNMENT ( #22, #36, ( #100 ) ) ;
#172 =( NAMED_UNIT ( * ) PLANE_ANGLE_UNIT ( ) SI_UNIT ( $, .RADIAN. ) );
#173 = CIRCLE ( 'NONE', #88, 4.499999999999989342 ) ;
#174 = CARTESIAN_POINT ( 'NONE',  ( 5.718578763756702510E-15, -2.005807420705598627E-16, 1.637866054197928189 ) ) ;
#175 = DESIGN_CONTEXT ( 'detailed design', #89, 'design' ) ;
#176 = DIRECTION ( 'NONE',  ( 3.491481338843133355E-15, -1.224646799147353454E-16, 1.000000000000000000 ) ) ;
#177 = PERSON_AND_ORGANIZATION ( #98, #117 ) ;
#178 = APPROVAL_PERSON_ORGANIZATION ( #133, #67, #162 ) ;
#179 = COORDINATED_UNIVERSAL_TIME_OFFSET ( 1, 0, .AHEAD. ) ;
#180 = EDGE_CURVE ( 'NONE', #58, #58, #114, .T. ) ;
#181 = CALENDAR_DATE ( 2021, 15, 10 ) ;
#182 = APPROVAL_DATE_TIME ( #105, #67 ) ;
#183 = ORIENTED_EDGE ( 'NONE', *, *, #20, .F. ) ;
#184 = CC_DESIGN_APPROVAL ( #67, ( #45 ) ) ;
#185 = CC_DESIGN_DATE_AND_TIME_ASSIGNMENT ( #63, #86, ( #24 ) ) ;
#186 = PLANE ( 'NONE',  #33 ) ;
#187 = DIRECTION ( 'NONE',  ( -3.491481338843133355E-15, 1.224646799147353454E-16, -1.000000000000000000 ) ) ;
#188 = DIRECTION ( 'NONE',  ( -3.423875456688427274E-31, -1.000000000000000000, -1.445602896647342614E-16 ) ) ;
#189 = AXIS2_PLACEMENT_3D ( 'NONE', #160, #176, #188 ) ;
#190 = DIRECTION ( 'NONE',  ( 4.275831445896958607E-31, 1.000000000000000000, 1.224646799147353207E-16 ) ) ;
#191 = CALENDAR_DATE ( 2021, 15, 10 ) ;
#192 = APPROVAL_ROLE ( '' ) ;
#193 = DATE_AND_TIME ( #181, #8 ) ;
#194 = DIRECTION ( 'NONE',  ( 0.0000000000000000000, 0.0000000000000000000, 1.000000000000000000 ) ) ;
#195 = AXIS2_PLACEMENT_3D ( 'NONE', #14, #46, #170 ) ;
#196 = EDGE_LOOP ( 'NONE', ( #96 ) ) ;
#197 = AXIS2_PLACEMENT_3D ( 'NONE', #31, #80, #1 ) ;
#198 = EDGE_LOOP ( 'NONE', ( #42 ) ) ;
#199 = CYLINDRICAL_SURFACE ( 'NONE', #135, 4.499999999999997335 ) ;
#200 = CARTESIAN_POINT ( 'NONE',  ( 2.904912473917487456E-13, 4.499999999999989342, 83.20000000000001705 ) ) ;
#201 = CARTESIAN_POINT ( 'NONE',  ( 0.0000000000000000000, 0.0000000000000000000, 0.0000000000000000000 ) ) ;
#202 = AXIS2_PLACEMENT_3D ( 'NONE', #30, #157, #190 ) ;
#203 = EDGE_CURVE ( 'NONE', #62, #62, #137, .T. ) ;
ENDSEC;
END-ISO-10303-21;
