ISO-10303-21;
HEADER;
FILE_DESCRIPTION (( 'STEP AP203' ),
    '1' );
FILE_NAME ('29125.step',
    '2021-10-15T13:34:12',
    ( '' ),
    ( '' ),
    'SwSTEP 2.0',
    'SolidWorks 2019',
    '' );
FILE_SCHEMA (( 'CONFIG_CONTROL_DESIGN' ));
ENDSEC;

DATA;
#1 = ORIENTED_EDGE ( 'NONE', *, *, #145, .F. ) ;
#2 = FACE_OUTER_BOUND ( 'NONE', #78, .T. ) ;
#3 = DIRECTION ( 'NONE',  ( -3.491481338843133355E-15, 1.224646799147353454E-16, -1.000000000000000000 ) ) ;
#4 = LOCAL_TIME ( 15, 34, 12.00000000000000000, #197 ) ;
#5 = FACE_OUTER_BOUND ( 'NONE', #202, .T. ) ;
#6 = DIRECTION ( 'NONE',  ( 4.275831445896959482E-31, 1.000000000000000000, 1.224646799147353454E-16 ) ) ;
#7 = LOCAL_TIME ( 15, 34, 12.00000000000000000, #46 ) ;
#8 = APPROVAL_ROLE ( '' ) ;
#9 = PERSON_AND_ORGANIZATION ( #69, #14 ) ;
#10 = CALENDAR_DATE ( 2021, 15, 10 ) ;
#11 = COORDINATED_UNIVERSAL_TIME_OFFSET ( 1, 0, .AHEAD. ) ;
#12 = CYLINDRICAL_SURFACE ( 'NONE', #142, 4.399999999999993250 ) ;
#13 = ADVANCED_FACE ( 'NONE', ( #136 ), #186, .T. ) ;
#14 = ORGANIZATION ( 'UNSPECIFIED', 'UNSPECIFIED', '' ) ;
#15 = MANIFOLD_SOLID_BREP ( 'Corps-Déplacer/Copier1[1]', #76 ) ;
#16 = ORIENTED_EDGE ( 'NONE', *, *, #75, .T. ) ;
#17 = CIRCLE ( 'NONE', #67, 4.399999999999990585 ) ;
#18 = VERTEX_POINT ( 'NONE', #80 ) ;
#19 = CARTESIAN_POINT ( 'NONE',  ( 1.396592535537253342E-13, 3.299471521856077432E-32, 40.00000000000000000 ) ) ;
#20 = CARTESIAN_POINT ( 'NONE',  ( 2.932844324628232018E-13, -1.028703311283776980E-14, 84.00000000000000000 ) ) ;
#21 = PLANE ( 'NONE',  #167 ) ;
#22 = ADVANCED_FACE ( 'NONE', ( #175, #50 ), #12, .T. ) ;
#23 = DIRECTION ( 'NONE',  ( -3.491481338843133355E-15, 1.224646799147353454E-16, -1.000000000000000000 ) ) ;
#24 = CALENDAR_DATE ( 2021, 15, 10 ) ;
#25 = APPROVAL_PERSON_ORGANIZATION ( #9, #131, #72 ) ;
#26 = DATE_TIME_ROLE ( 'classification_date' ) ;
#27 = PRODUCT_DEFINITION_SHAPE ( 'NONE', 'NONE',  #117 ) ;
#28 = PERSON_AND_ORGANIZATION ( #69, #14 ) ;
#29 = DATE_AND_TIME ( #10, #176 ) ;
#30 = AXIS2_PLACEMENT_3D ( 'NONE', #49, #96, #108 ) ;
#31 = ADVANCED_FACE ( 'NONE', ( #166 ), #128, .F. ) ;
#32 = EDGE_LOOP ( 'NONE', ( #16 ) ) ;
#33 = EDGE_LOOP ( 'NONE', ( #62 ) ) ;
#34 = EDGE_LOOP ( 'NONE', ( #1 ) ) ;
#35 = LOCAL_TIME ( 15, 34, 12.00000000000000000, #89 ) ;
#36 = CARTESIAN_POINT ( 'NONE',  ( 1.396592535537253342E-13, -4.898587196589413815E-15, 40.00000000000000000 ) ) ;
#37 =( LENGTH_UNIT ( ) NAMED_UNIT ( * ) SI_UNIT ( .MILLI., .METRE. ) );
#38 = VERTEX_POINT ( 'NONE', #112 ) ;
#39 = ADVANCED_BREP_SHAPE_REPRESENTATION ( '29125', ( #15, #154, #97 ), #170 ) ;
#40 = CC_DESIGN_PERSON_AND_ORGANIZATION_ASSIGNMENT ( #116, #181, ( #95 ) ) ;
#41 = DIRECTION ( 'NONE',  ( -3.491481338843133355E-15, 1.224646799147353454E-16, -1.000000000000000000 ) ) ;
#42 = CALENDAR_DATE ( 2021, 15, 10 ) ;
#43 = CC_DESIGN_APPROVAL ( #48, ( #117 ) ) ;
#44 = DATE_AND_TIME ( #42, #7 ) ;
#45 = APPROVAL_STATUS ( 'not_yet_approved' ) ;
#46 = COORDINATED_UNIVERSAL_TIME_OFFSET ( 1, 0, .AHEAD. ) ;
#47 = AXIS2_PLACEMENT_3D ( 'NONE', #148, #110, #64 ) ;
#48 = APPROVAL ( #45, 'UNSPECIFIED' ) ;
#49 = CARTESIAN_POINT ( 'NONE',  ( 1.396592535537253342E-13, 3.299471521856077432E-32, 40.00000000000000000 ) ) ;
#50 = FACE_OUTER_BOUND ( 'NONE', #141, .T. ) ;
#51 = CARTESIAN_POINT ( 'NONE',  ( 1.396592535537253342E-13, 4.399999999999990585, 40.00000000000000000 ) ) ;
#52 = CONICAL_SURFACE ( 'NONE', #201, 3.600000000000000977, 0.7853981633974516097 ) ;
#53 = DIRECTION ( 'NONE',  ( -3.501690807976800024E-31, -1.000000000000000000, -9.856383386231879781E-17 ) ) ;
#54 =( NAMED_UNIT ( * ) PLANE_ANGLE_UNIT ( ) SI_UNIT ( $, .RADIAN. ) );
#55 = DIRECTION ( 'NONE',  ( 0.0000000000000000000, 1.000000000000000000, 0.0000000000000000000 ) ) ;
#56 = DIRECTION ( 'NONE',  ( 4.275831445896959482E-31, 1.000000000000000000, 1.224646799147353454E-16 ) ) ;
#57 = PERSON_AND_ORGANIZATION_ROLE ( 'design_supplier' ) ;
#58 = ADVANCED_FACE ( 'NONE', ( #5 ), #21, .F. ) ;
#59 = APPLICATION_PROTOCOL_DEFINITION ( 'international standard', 'config_control_design', 1994, #139 ) ;
#60 = ADVANCED_FACE ( 'NONE', ( #177, #66 ), #52, .T. ) ;
#61 = ORIENTED_EDGE ( 'NONE', *, *, #163, .F. ) ;
#62 = ORIENTED_EDGE ( 'NONE', *, *, #75, .F. ) ;
#63 = DIRECTION ( 'NONE',  ( 0.0000000000000000000, 1.000000000000000000, 0.0000000000000000000 ) ) ;
#64 = DIRECTION ( 'NONE',  ( 0.0000000000000000000, 1.000000000000000000, 0.0000000000000000000 ) ) ;
#65 = DIRECTION ( 'NONE',  ( 3.491481338843133355E-15, -1.224646799147353454E-16, 1.000000000000000000 ) ) ;
#66 = FACE_BOUND ( 'NONE', #138, .T. ) ;
#67 = AXIS2_PLACEMENT_3D ( 'NONE', #124, #83, #162 ) ;
#68 = DATE_AND_TIME ( #24, #4 ) ;
#69 = PERSON ( 'UNSPECIFIED', 'UNSPECIFIED', 'UNSPECIFIED', ('UNSPECIFIED'), ('UNSPECIFIED'), ('UNSPECIFIED') ) ;
#70 = DATE_AND_TIME ( #115, #120 ) ;
#71 = CIRCLE ( 'NONE', #195, 4.399999999999995914 ) ;
#72 = APPROVAL_ROLE ( '' ) ;
#73 = COORDINATED_UNIVERSAL_TIME_OFFSET ( 1, 0, .AHEAD. ) ;
#74 = CARTESIAN_POINT ( 'NONE',  ( 0.0000000000000000000, 0.0000000000000000000, 0.0000000000000000000 ) ) ;
#75 = EDGE_CURVE ( 'NONE', #38, #38, #71, .T. ) ;
#76 = CLOSED_SHELL ( 'NONE', ( #31, #85, #60, #58 ) ) ;
#77 = UNCERTAINTY_MEASURE_WITH_UNIT (LENGTH_MEASURE( 1.000000000000000082E-05 ), #37, 'distance_accuracy_value', 'NONE');
#78 = EDGE_LOOP ( 'NONE', ( #140 ) ) ;
#79 = ORIENTED_EDGE ( 'NONE', *, *, #189, .F. ) ;
#80 = CARTESIAN_POINT ( 'NONE',  ( 5.591499235673224527E-15, 4.399999999999990585, 1.601469030771308866 ) ) ;
#81 = CARTESIAN_POINT ( 'NONE',  ( 2.904912473917487456E-13, -1.018906136890598294E-14, 83.20000000000001705 ) ) ;
#82 = CARTESIAN_POINT ( 'NONE',  ( 2.904912473917487456E-13, 4.399999999999990585, 83.20000000000001705 ) ) ;
#83 = DIRECTION ( 'NONE',  ( -3.491481338843133355E-15, 1.224646799147353454E-16, -1.000000000000000000 ) ) ;
#84 = FACE_OUTER_BOUND ( 'NONE', #159, .T. ) ;
#85 = ADVANCED_FACE ( 'NONE', ( #129, #84 ), #165, .T. ) ;
#86 = APPROVAL_PERSON_ORGANIZATION ( #179, #90, #8 ) ;
#87 = DATE_TIME_ROLE ( 'creation_date' ) ;
#88 = CC_DESIGN_DATE_AND_TIME_ASSIGNMENT ( #29, #26, ( #95 ) ) ;
#89 = COORDINATED_UNIVERSAL_TIME_OFFSET ( 1, 0, .AHEAD. ) ;
#90 = APPROVAL ( #151, 'UNSPECIFIED' ) ;
#91 = DIRECTION ( 'NONE',  ( 0.0000000000000000000, 0.0000000000000000000, 1.000000000000000000 ) ) ;
#92 = CARTESIAN_POINT ( 'NONE',  ( 0.0000000000000000000, 0.0000000000000000000, 0.0000000000000000000 ) ) ;
#93 = AXIS2_PLACEMENT_3D ( 'NONE', #130, #168, #56 ) ;
#94 = ORIENTED_EDGE ( 'NONE', *, *, #189, .T. ) ;
#95 = SECURITY_CLASSIFICATION ( '', '', #132 ) ;
#96 = DIRECTION ( 'NONE',  ( 3.491481338843133355E-15, -1.224646799147353454E-16, 1.000000000000000000 ) ) ;
#97 = AXIS2_PLACEMENT_3D ( 'NONE', #92, #91, #171 ) ;
#98 = DIRECTION ( 'NONE',  ( 0.0000000000000000000, 1.000000000000000000, 0.0000000000000000000 ) ) ;
#99 = CARTESIAN_POINT ( 'NONE',  ( 2.932844324628232018E-13, -1.028703311283776980E-14, 84.00000000000000000 ) ) ;
#100 =( NAMED_UNIT ( * ) SI_UNIT ( $, .STERADIAN. ) SOLID_ANGLE_UNIT ( ) );
#101 = VERTEX_POINT ( 'NONE', #82 ) ;
#102 = MECHANICAL_CONTEXT ( 'NONE', #191, 'mechanical' ) ;
#103 = CC_DESIGN_APPROVAL ( #90, ( #158 ) ) ;
#104 = APPROVAL_STATUS ( 'not_yet_approved' ) ;
#105 = APPROVAL_DATE_TIME ( #199, #131 ) ;
#106 = APPROVAL_DATE_TIME ( #70, #48 ) ;
#107 = AXIS2_PLACEMENT_3D ( 'NONE', #20, #190, #98 ) ;
#108 = DIRECTION ( 'NONE',  ( -4.275831445896959482E-31, -1.000000000000000000, -1.224646799147353454E-16 ) ) ;
#109 = ADVANCED_FACE ( 'NONE', ( #2 ), #125, .T. ) ;
#110 = DIRECTION ( 'NONE',  ( -3.491481338843133355E-15, 1.224646799147353454E-16, -1.000000000000000000 ) ) ;
#111 = DESIGN_CONTEXT ( 'detailed design', #139, 'design' ) ;
#112 = CARTESIAN_POINT ( 'NONE',  ( 1.396592535537253342E-13, 4.399999999999990585, 40.00000000000000000 ) ) ;
#113 = VERTEX_POINT ( 'NONE', #51 ) ;
#114 = CARTESIAN_POINT ( 'NONE',  ( 5.591499235673222950E-15, -1.961233922467697334E-16, 1.601469030771308422 ) ) ;
#115 = CALENDAR_DATE ( 2021, 15, 10 ) ;
#116 = PERSON_AND_ORGANIZATION ( #69, #14 ) ;
#117 = PRODUCT_DEFINITION ( 'UNKNOWN', '', #158, #111 ) ;
#118 = PRODUCT ( '29125', '29125', '', ( #102 ) ) ;
#119 = PERSON_AND_ORGANIZATION ( #69, #14 ) ;
#120 = LOCAL_TIME ( 15, 34, 12.00000000000000000, #73 ) ;
#121 = ORIENTED_EDGE ( 'NONE', *, *, #163, .T. ) ;
#122 = CC_DESIGN_DATE_AND_TIME_ASSIGNMENT ( #68, #87, ( #117 ) ) ;
#123 = ORIENTED_EDGE ( 'NONE', *, *, #174, .T. ) ;
#124 = CARTESIAN_POINT ( 'NONE',  ( 5.591499235673222950E-15, -1.961233922467697334E-16, 1.601469030771308422 ) ) ;
#125 = CONICAL_SURFACE ( 'NONE', #161, 4.399999999999990585, 1.221730476396026388 ) ;
#126 = DIRECTION ( 'NONE',  ( 3.491481338843133355E-15, -1.224646799147353454E-16, 1.000000000000000000 ) ) ;
#127 = CIRCLE ( 'NONE', #47, 4.399999999999995914 ) ;
#128 = PLANE ( 'NONE',  #193 ) ;
#129 = FACE_OUTER_BOUND ( 'NONE', #33, .T. ) ;
#130 = CARTESIAN_POINT ( 'NONE',  ( 0.0000000000000000000, 0.0000000000000000000, 0.0000000000000000000 ) ) ;
#131 = APPROVAL ( #104, 'UNSPECIFIED' ) ;
#132 = SECURITY_CLASSIFICATION_LEVEL ( 'unclassified' ) ;
#133 = PERSON_AND_ORGANIZATION ( #69, #14 ) ;
#134 = CLOSED_SHELL ( 'NONE', ( #109, #22, #13 ) ) ;
#135 = PERSON_AND_ORGANIZATION ( #69, #14 ) ;
#136 = FACE_OUTER_BOUND ( 'NONE', #160, .T. ) ;
#137 = CC_DESIGN_APPROVAL ( #131, ( #95 ) ) ;
#138 = EDGE_LOOP ( 'NONE', ( #123 ) ) ;
#139 = APPLICATION_CONTEXT ( 'configuration controlled 3d designs of mechanical parts and assemblies' ) ;
#140 = ORIENTED_EDGE ( 'NONE', *, *, #145, .T. ) ;
#141 = EDGE_LOOP ( 'NONE', ( #94 ) ) ;
#142 = AXIS2_PLACEMENT_3D ( 'NONE', #74, #23, #6 ) ;
#143 = ORIENTED_EDGE ( 'NONE', *, *, #174, .F. ) ;
#144 = DIRECTION ( 'NONE',  ( -3.491481338843133355E-15, 1.224646799147353454E-16, -1.000000000000000000 ) ) ;
#145 = EDGE_CURVE ( 'NONE', #18, #18, #17, .T. ) ;
#146 = CARTESIAN_POINT ( 'NONE',  ( 2.932844324628232018E-13, 2.699567608791330010E-32, 84.00000000000000000 ) ) ;
#147 = CC_DESIGN_PERSON_AND_ORGANIZATION_ASSIGNMENT ( #173, #57, ( #158 ) ) ;
#148 = CARTESIAN_POINT ( 'NONE',  ( 1.396592535537253342E-13, -4.898587196589413815E-15, 40.00000000000000000 ) ) ;
#149 = DIRECTION ( 'NONE',  ( -4.275831445896959482E-31, -1.000000000000000000, -1.224646799147353454E-16 ) ) ;
#150 = PRODUCT_RELATED_PRODUCT_CATEGORY ( 'detail', '', ( #118 ) ) ;
#151 = APPROVAL_STATUS ( 'not_yet_approved' ) ;
#152 = CC_DESIGN_SECURITY_CLASSIFICATION ( #95, ( #158 ) ) ;
#153 = PERSON_AND_ORGANIZATION_ROLE ( 'creator' ) ;
#154 = MANIFOLD_SOLID_BREP ( 'Corps-Déplacer/Copier1[2]', #134 ) ;
#155 = CALENDAR_DATE ( 2021, 15, 10 ) ;
#156 = PERSON_AND_ORGANIZATION_ROLE ( 'design_owner' ) ;
#157 = APPROVAL_DATE_TIME ( #44, #90 ) ;
#158 = PRODUCT_DEFINITION_FORMATION_WITH_SPECIFIED_SOURCE ( 'ANY', '', #118, .NOT_KNOWN. ) ;
#159 = EDGE_LOOP ( 'NONE', ( #121 ) ) ;
#160 = EDGE_LOOP ( 'NONE', ( #79 ) ) ;
#161 = AXIS2_PLACEMENT_3D ( 'NONE', #114, #126, #53 ) ;
#162 = DIRECTION ( 'NONE',  ( 3.501690807976800024E-31, 1.000000000000000000, 9.856383386231879781E-17 ) ) ;
#163 = EDGE_CURVE ( 'NONE', #101, #101, #184, .T. ) ;
#164 = CARTESIAN_POINT ( 'NONE',  ( 2.932844324628232018E-13, 3.599999999999990319, 84.00000000000000000 ) ) ;
#165 = CYLINDRICAL_SURFACE ( 'NONE', #93, 4.399999999999998579 ) ;
#166 = FACE_OUTER_BOUND ( 'NONE', #32, .T. ) ;
#167 = AXIS2_PLACEMENT_3D ( 'NONE', #146, #144, #194 ) ;
#168 = DIRECTION ( 'NONE',  ( -3.491481338843133355E-15, 1.224646799147353454E-16, -1.000000000000000000 ) ) ;
#169 = APPLICATION_PROTOCOL_DEFINITION ( 'international standard', 'config_control_design', 1994, #191 ) ;
#170 =( GEOMETRIC_REPRESENTATION_CONTEXT ( 3 ) GLOBAL_UNCERTAINTY_ASSIGNED_CONTEXT ( ( #77 ) ) GLOBAL_UNIT_ASSIGNED_CONTEXT ( ( #37, #54, #100 ) ) REPRESENTATION_CONTEXT ( 'NONE', 'WORKASPACE' ) );
#171 = DIRECTION ( 'NONE',  ( 1.000000000000000000, 0.0000000000000000000, 0.0000000000000000000 ) ) ;
#172 = SHAPE_DEFINITION_REPRESENTATION ( #27, #39 ) ;
#173 = PERSON_AND_ORGANIZATION ( #69, #14 ) ;
#174 = EDGE_CURVE ( 'NONE', #192, #192, #185, .T. ) ;
#175 = FACE_OUTER_BOUND ( 'NONE', #34, .T. ) ;
#176 = LOCAL_TIME ( 15, 34, 12.00000000000000000, #11 ) ;
#177 = FACE_OUTER_BOUND ( 'NONE', #203, .T. ) ;
#178 = DIRECTION ( 'NONE',  ( -3.491481338843133355E-15, 1.224646799147353454E-16, -1.000000000000000000 ) ) ;
#179 = PERSON_AND_ORGANIZATION ( #69, #14 ) ;
#180 = AXIS2_PLACEMENT_3D ( 'NONE', #81, #3, #63 ) ;
#181 = PERSON_AND_ORGANIZATION_ROLE ( 'classification_officer' ) ;
#182 = CC_DESIGN_PERSON_AND_ORGANIZATION_ASSIGNMENT ( #28, #153, ( #158 ) ) ;
#183 = APPROVAL_ROLE ( '' ) ;
#184 = CIRCLE ( 'NONE', #180, 4.400000000000001243 ) ;
#185 = CIRCLE ( 'NONE', #107, 3.600000000000000977 ) ;
#186 = PLANE ( 'NONE',  #30 ) ;
#187 = DIRECTION ( 'NONE',  ( 0.0000000000000000000, 1.000000000000000000, 0.0000000000000000000 ) ) ;
#188 = APPROVAL_PERSON_ORGANIZATION ( #119, #48, #183 ) ;
#189 = EDGE_CURVE ( 'NONE', #113, #113, #127, .T. ) ;
#190 = DIRECTION ( 'NONE',  ( -3.491481338843133355E-15, 1.224646799147353454E-16, -1.000000000000000000 ) ) ;
#191 = APPLICATION_CONTEXT ( 'configuration controlled 3d designs of mechanical parts and assemblies' ) ;
#192 = VERTEX_POINT ( 'NONE', #164 ) ;
#193 = AXIS2_PLACEMENT_3D ( 'NONE', #19, #65, #149 ) ;
#194 = DIRECTION ( 'NONE',  ( 4.275831445896959482E-31, 1.000000000000000000, 1.224646799147353454E-16 ) ) ;
#195 = AXIS2_PLACEMENT_3D ( 'NONE', #36, #41, #55 ) ;
#196 = PERSON_AND_ORGANIZATION_ROLE ( 'creator' ) ;
#197 = COORDINATED_UNIVERSAL_TIME_OFFSET ( 1, 0, .AHEAD. ) ;
#198 = CC_DESIGN_PERSON_AND_ORGANIZATION_ASSIGNMENT ( #133, #196, ( #117 ) ) ;
#199 = DATE_AND_TIME ( #155, #35 ) ;
#200 = CC_DESIGN_PERSON_AND_ORGANIZATION_ASSIGNMENT ( #135, #156, ( #118 ) ) ;
#201 = AXIS2_PLACEMENT_3D ( 'NONE', #99, #178, #187 ) ;
#202 = EDGE_LOOP ( 'NONE', ( #143 ) ) ;
#203 = EDGE_LOOP ( 'NONE', ( #61 ) ) ;
ENDSEC;
END-ISO-10303-21;
