ISO-10303-21;
HEADER;
FILE_DESCRIPTION (( 'STEP AP203' ),
    '1' );
FILE_NAME ('29121.step',
    '2021-10-15T13:34:11',
    ( '' ),
    ( '' ),
    'SwSTEP 2.0',
    'SolidWorks 2019',
    '' );
FILE_SCHEMA (( 'CONFIG_CONTROL_DESIGN' ));
ENDSEC;

DATA;
#1 = EDGE_LOOP ( 'NONE', ( #102 ) ) ;
#2 = FACE_BOUND ( 'NONE', #25, .T. ) ;
#3 = DIRECTION ( 'NONE',  ( 3.491481338843133355E-15, -1.224646799147353207E-16, 1.000000000000000000 ) ) ;
#4 = LOCAL_TIME ( 15, 34, 11.00000000000000000, #197 ) ;
#5 = EDGE_CURVE ( 'NONE', #173, #173, #160, .T. ) ;
#6 = DIRECTION ( 'NONE',  ( 3.491481338843133355E-15, -1.224646799147353207E-16, 1.000000000000000000 ) ) ;
#7 = DIRECTION ( 'NONE',  ( 0.0000000000000000000, 1.000000000000000000, 0.0000000000000000000 ) ) ;
#8 = AXIS2_PLACEMENT_3D ( 'NONE', #15, #79, #44 ) ;
#9 = DATE_AND_TIME ( #10, #19 ) ;
#10 = CALENDAR_DATE ( 2021, 15, 10 ) ;
#11 = APPROVAL_STATUS ( 'not_yet_approved' ) ;
#12 = CIRCLE ( 'NONE', #45, 3.750000000000000000 ) ;
#13 = LOCAL_TIME ( 15, 34, 11.00000000000000000, #133 ) ;
#14 = ORIENTED_EDGE ( 'NONE', *, *, #5, .T. ) ;
#15 = CARTESIAN_POINT ( 'NONE',  ( 1.187103655206665341E-13, -4.163799117101000559E-15, 34.00000000000000000 ) ) ;
#16 = DIRECTION ( 'NONE',  ( -4.275831445896958607E-31, -1.000000000000000000, -1.224646799147353207E-16 ) ) ;
#17 = FACE_OUTER_BOUND ( 'NONE', #168, .T. ) ;
#18 = PERSON_AND_ORGANIZATION ( #36, #199 ) ;
#19 = LOCAL_TIME ( 15, 34, 11.00000000000000000, #130 ) ;
#20 = CC_DESIGN_DATE_AND_TIME_ASSIGNMENT ( #179, #113, ( #98 ) ) ;
#21 = APPROVAL_ROLE ( '' ) ;
#22 = CLOSED_SHELL ( 'NONE', ( #195, #59, #63 ) ) ;
#23 = AXIS2_PLACEMENT_3D ( 'NONE', #85, #38, #134 ) ;
#24 = DIRECTION ( 'NONE',  ( 4.108650548026113079E-31, 1.000000000000000000, 1.156482317317874190E-16 ) ) ;
#25 = EDGE_LOOP ( 'NONE', ( #14 ) ) ;
#26 = EDGE_CURVE ( 'NONE', #155, #155, #164, .T. ) ;
#27 = CC_DESIGN_APPROVAL ( #75, ( #98 ) ) ;
#28 = CIRCLE ( 'NONE', #153, 3.749999999999995115 ) ;
#29 = CARTESIAN_POINT ( 'NONE',  ( 4.765482303130586477E-15, 3.749999999999990674, 1.364888378498273713 ) ) ;
#30 = PLANE ( 'NONE',  #187 ) ;
#31 = CARTESIAN_POINT ( 'NONE',  ( 2.559255821372016181E-13, -8.976661037750097719E-15, 73.29999999999999716 ) ) ;
#32 = CC_DESIGN_PERSON_AND_ORGANIZATION_ASSIGNMENT ( #65, #67, ( #189 ) ) ;
#33 = DIRECTION ( 'NONE',  ( 4.275831445896958607E-31, 1.000000000000000000, 1.224646799147353207E-16 ) ) ;
#34 = DIRECTION ( 'NONE',  ( 3.491481338843133355E-15, -1.224646799147353207E-16, 1.000000000000000000 ) ) ;
#35 = PERSON_AND_ORGANIZATION_ROLE ( 'creator' ) ;
#36 = PERSON ( 'UNSPECIFIED', 'UNSPECIFIED', 'UNSPECIFIED', ('UNSPECIFIED'), ('UNSPECIFIED'), ('UNSPECIFIED') ) ;
#37 = CALENDAR_DATE ( 2021, 15, 10 ) ;
#38 = DIRECTION ( 'NONE',  ( 0.0000000000000000000, 0.0000000000000000000, 1.000000000000000000 ) ) ;
#39 = CC_DESIGN_PERSON_AND_ORGANIZATION_ASSIGNMENT ( #87, #35, ( #165 ) ) ;
#40 = APPROVAL_STATUS ( 'not_yet_approved' ) ;
#41 =( GEOMETRIC_REPRESENTATION_CONTEXT ( 3 ) GLOBAL_UNCERTAINTY_ASSIGNED_CONTEXT ( ( #109 ) ) GLOBAL_UNIT_ASSIGNED_CONTEXT ( ( #94, #144, #46 ) ) REPRESENTATION_CONTEXT ( 'NONE', 'WORKASPACE' ) );
#42 = EDGE_LOOP ( 'NONE', ( #140 ) ) ;
#43 = ORIENTED_EDGE ( 'NONE', *, *, #147, .F. ) ;
#44 = DIRECTION ( 'NONE',  ( 0.0000000000000000000, 1.000000000000000000, 0.0000000000000000000 ) ) ;
#45 = AXIS2_PLACEMENT_3D ( 'NONE', #31, #62, #58 ) ;
#46 =( NAMED_UNIT ( * ) SI_UNIT ( $, .STERADIAN. ) SOLID_ANGLE_UNIT ( ) );
#47 = PRODUCT_DEFINITION ( 'UNKNOWN', '', #165, #73 ) ;
#48 = CARTESIAN_POINT ( 'NONE',  ( 1.187103655206665341E-13, -4.163799117101000559E-15, 34.00000000000000000 ) ) ;
#49 = APPROVAL_STATUS ( 'not_yet_approved' ) ;
#50 = MECHANICAL_CONTEXT ( 'NONE', #68, 'mechanical' ) ;
#51 = APPROVAL_DATE_TIME ( #178, #83 ) ;
#52 = CALENDAR_DATE ( 2021, 15, 10 ) ;
#53 = COORDINATED_UNIVERSAL_TIME_OFFSET ( 1, 0, .AHEAD. ) ;
#54 = AXIS2_PLACEMENT_3D ( 'NONE', #157, #34, #81 ) ;
#55 = CARTESIAN_POINT ( 'NONE',  ( 4.765482303130584899E-15, -1.671506183921331532E-16, 1.364888378498273491 ) ) ;
#56 = CARTESIAN_POINT ( 'NONE',  ( 0.0000000000000000000, 0.0000000000000000000, 0.0000000000000000000 ) ) ;
#57 = CARTESIAN_POINT ( 'NONE',  ( 2.583696190743918430E-13, 3.049999999999990496, 74.00000000000000000 ) ) ;
#58 = DIRECTION ( 'NONE',  ( 0.0000000000000000000, 1.000000000000000000, 0.0000000000000000000 ) ) ;
#59 = ADVANCED_FACE ( 'NONE', ( #201, #89 ), #152, .T. ) ;
#60 = FACE_OUTER_BOUND ( 'NONE', #104, .T. ) ;
#61 = DIRECTION ( 'NONE',  ( -3.491481338843133355E-15, 1.224646799147353207E-16, -1.000000000000000000 ) ) ;
#62 = DIRECTION ( 'NONE',  ( -3.491481338843133355E-15, 1.224646799147353207E-16, -1.000000000000000000 ) ) ;
#63 = ADVANCED_FACE ( 'NONE', ( #175 ), #108, .T. ) ;
#64 = CC_DESIGN_SECURITY_CLASSIFICATION ( #98, ( #165 ) ) ;
#65 = PERSON_AND_ORGANIZATION ( #36, #199 ) ;
#66 = PERSON_AND_ORGANIZATION_ROLE ( 'classification_officer' ) ;
#67 = PERSON_AND_ORGANIZATION_ROLE ( 'design_owner' ) ;
#68 = APPLICATION_CONTEXT ( 'configuration controlled 3d designs of mechanical parts and assemblies' ) ;
#69 = ORIENTED_EDGE ( 'NONE', *, *, #26, .F. ) ;
#70 = LOCAL_TIME ( 15, 34, 11.00000000000000000, #100 ) ;
#71 = AXIS2_PLACEMENT_3D ( 'NONE', #55, #142, #24 ) ;
#72 = APPROVAL_PERSON_ORGANIZATION ( #198, #83, #112 ) ;
#73 = DESIGN_CONTEXT ( 'detailed design', #132, 'design' ) ;
#74 = ORIENTED_EDGE ( 'NONE', *, *, #183, .F. ) ;
#75 = APPROVAL ( #40, 'UNSPECIFIED' ) ;
#76 = EDGE_LOOP ( 'NONE', ( #69 ) ) ;
#77 = ORIENTED_EDGE ( 'NONE', *, *, #147, .T. ) ;
#78 = MANIFOLD_SOLID_BREP ( 'Corps-Déplacer/Copier1[2]', #22 ) ;
#79 = DIRECTION ( 'NONE',  ( -3.491481338843133355E-15, 1.224646799147353207E-16, -1.000000000000000000 ) ) ;
#80 = VERTEX_POINT ( 'NONE', #128 ) ;
#81 = DIRECTION ( 'NONE',  ( -4.108650548026113079E-31, -1.000000000000000000, -1.156482317317874190E-16 ) ) ;
#82 = MANIFOLD_SOLID_BREP ( 'Corps-Déplacer/Copier1[1]', #203 ) ;
#83 = APPROVAL ( #49, 'UNSPECIFIED' ) ;
#84 = CARTESIAN_POINT ( 'NONE',  ( 2.583696190743918430E-13, -9.062386313690413585E-15, 74.00000000000000000 ) ) ;
#85 = CARTESIAN_POINT ( 'NONE',  ( 0.0000000000000000000, 0.0000000000000000000, 0.0000000000000000000 ) ) ;
#86 = SECURITY_CLASSIFICATION_LEVEL ( 'unclassified' ) ;
#87 = PERSON_AND_ORGANIZATION ( #36, #199 ) ;
#88 = ADVANCED_FACE ( 'NONE', ( #95 ), #110, .F. ) ;
#89 = FACE_OUTER_BOUND ( 'NONE', #42, .T. ) ;
#90 = CONICAL_SURFACE ( 'NONE', #118, 3.049999999999999822, 0.7853981633974439491 ) ;
#91 = CC_DESIGN_PERSON_AND_ORGANIZATION_ASSIGNMENT ( #150, #162, ( #47 ) ) ;
#92 = VERTEX_POINT ( 'NONE', #156 ) ;
#93 = FACE_OUTER_BOUND ( 'NONE', #139, .T. ) ;
#94 =( LENGTH_UNIT ( ) NAMED_UNIT ( * ) SI_UNIT ( .MILLI., .METRE. ) );
#95 = FACE_OUTER_BOUND ( 'NONE', #182, .T. ) ;
#96 = APPLICATION_PROTOCOL_DEFINITION ( 'international standard', 'config_control_design', 1994, #68 ) ;
#97 = LOCAL_TIME ( 15, 34, 11.00000000000000000, #53 ) ;
#98 = SECURITY_CLASSIFICATION ( '', '', #86 ) ;
#99 = APPROVAL_DATE_TIME ( #181, #75 ) ;
#100 = COORDINATED_UNIVERSAL_TIME_OFFSET ( 1, 0, .AHEAD. ) ;
#101 = AXIS2_PLACEMENT_3D ( 'NONE', #202, #120, #170 ) ;
#102 = ORIENTED_EDGE ( 'NONE', *, *, #131, .F. ) ;
#103 = CC_DESIGN_DATE_AND_TIME_ASSIGNMENT ( #151, #196, ( #47 ) ) ;
#104 = EDGE_LOOP ( 'NONE', ( #77 ) ) ;
#105 = CC_DESIGN_PERSON_AND_ORGANIZATION_ASSIGNMENT ( #148, #66, ( #98 ) ) ;
#106 = DIRECTION ( 'NONE',  ( -3.491481338843133355E-15, 1.224646799147353207E-16, -1.000000000000000000 ) ) ;
#107 = APPROVAL_PERSON_ORGANIZATION ( #18, #149, #194 ) ;
#108 = PLANE ( 'NONE',  #141 ) ;
#109 = UNCERTAINTY_MEASURE_WITH_UNIT (LENGTH_MEASURE( 1.000000000000000082E-05 ), #94, 'distance_accuracy_value', 'NONE');
#110 = PLANE ( 'NONE',  #154 ) ;
#111 = DIRECTION ( 'NONE',  ( 4.275831445896958607E-31, 1.000000000000000000, 1.224646799147353207E-16 ) ) ;
#112 = APPROVAL_ROLE ( '' ) ;
#113 = DATE_TIME_ROLE ( 'classification_date' ) ;
#114 = PERSON_AND_ORGANIZATION_ROLE ( 'design_supplier' ) ;
#115 = CALENDAR_DATE ( 2021, 15, 10 ) ;
#116 = CC_DESIGN_PERSON_AND_ORGANIZATION_ASSIGNMENT ( #163, #114, ( #165 ) ) ;
#117 = CALENDAR_DATE ( 2021, 15, 10 ) ;
#118 = AXIS2_PLACEMENT_3D ( 'NONE', #84, #146, #7 ) ;
#119 = EDGE_LOOP ( 'NONE', ( #137 ) ) ;
#120 = DIRECTION ( 'NONE',  ( -3.491481338843133355E-15, 1.224646799147353207E-16, -1.000000000000000000 ) ) ;
#121 = ORIENTED_EDGE ( 'NONE', *, *, #5, .F. ) ;
#122 = DIRECTION ( 'NONE',  ( 4.275831445896958607E-31, 1.000000000000000000, 1.224646799147353207E-16 ) ) ;
#123 = AXIS2_PLACEMENT_3D ( 'NONE', #124, #61, #111 ) ;
#124 = CARTESIAN_POINT ( 'NONE',  ( 0.0000000000000000000, 0.0000000000000000000, 0.0000000000000000000 ) ) ;
#125 = APPROVAL_PERSON_ORGANIZATION ( #180, #75, #21 ) ;
#126 = CARTESIAN_POINT ( 'NONE',  ( 1.187103655206665341E-13, 3.749999999999990674, 34.00000000000000000 ) ) ;
#127 = ADVANCED_BREP_SHAPE_REPRESENTATION ( '29121', ( #82, #78, #23 ), #41 ) ;
#128 = CARTESIAN_POINT ( 'NONE',  ( 1.187103655206665341E-13, 3.749999999999990674, 34.00000000000000000 ) ) ;
#129 = CARTESIAN_POINT ( 'NONE',  ( 1.187103655206665341E-13, 2.812049592490972341E-32, 34.00000000000000000 ) ) ;
#130 = COORDINATED_UNIVERSAL_TIME_OFFSET ( 1, 0, .AHEAD. ) ;
#131 = EDGE_CURVE ( 'NONE', #174, #174, #192, .T. ) ;
#132 = APPLICATION_CONTEXT ( 'configuration controlled 3d designs of mechanical parts and assemblies' ) ;
#133 = COORDINATED_UNIVERSAL_TIME_OFFSET ( 1, 0, .AHEAD. ) ;
#134 = DIRECTION ( 'NONE',  ( 1.000000000000000000, 0.0000000000000000000, 0.0000000000000000000 ) ) ;
#135 = APPLICATION_PROTOCOL_DEFINITION ( 'international standard', 'config_control_design', 1994, #132 ) ;
#136 = CC_DESIGN_APPROVAL ( #149, ( #47 ) ) ;
#137 = ORIENTED_EDGE ( 'NONE', *, *, #26, .T. ) ;
#138 = ADVANCED_FACE ( 'NONE', ( #17, #2 ), #90, .T. ) ;
#139 = EDGE_LOOP ( 'NONE', ( #184 ) ) ;
#140 = ORIENTED_EDGE ( 'NONE', *, *, #131, .T. ) ;
#141 = AXIS2_PLACEMENT_3D ( 'NONE', #129, #3, #186 ) ;
#142 = DIRECTION ( 'NONE',  ( -3.491481338843133355E-15, 1.224646799147353207E-16, -1.000000000000000000 ) ) ;
#143 = CARTESIAN_POINT ( 'NONE',  ( 1.187103655206665341E-13, 2.812049592490972341E-32, 34.00000000000000000 ) ) ;
#144 =( NAMED_UNIT ( * ) PLANE_ANGLE_UNIT ( ) SI_UNIT ( $, .RADIAN. ) );
#145 = FACE_OUTER_BOUND ( 'NONE', #200, .T. ) ;
#146 = DIRECTION ( 'NONE',  ( -3.491481338843133355E-15, 1.224646799147353207E-16, -1.000000000000000000 ) ) ;
#147 = EDGE_CURVE ( 'NONE', #92, #92, #12, .T. ) ;
#148 = PERSON_AND_ORGANIZATION ( #36, #199 ) ;
#149 = APPROVAL ( #11, 'UNSPECIFIED' ) ;
#150 = PERSON_AND_ORGANIZATION ( #36, #199 ) ;
#151 = DATE_AND_TIME ( #117, #70 ) ;
#152 = CYLINDRICAL_SURFACE ( 'NONE', #190, 3.749999999999992895 ) ;
#153 = AXIS2_PLACEMENT_3D ( 'NONE', #48, #106, #176 ) ;
#154 = AXIS2_PLACEMENT_3D ( 'NONE', #161, #159, #122 ) ;
#155 = VERTEX_POINT ( 'NONE', #29 ) ;
#156 = CARTESIAN_POINT ( 'NONE',  ( 2.559255821372016181E-13, 3.749999999999990674, 73.29999999999999716 ) ) ;
#157 = CARTESIAN_POINT ( 'NONE',  ( 4.765482303130584899E-15, -1.671506183921331532E-16, 1.364888378498273491 ) ) ;
#158 = ADVANCED_FACE ( 'NONE', ( #145, #60 ), #191, .T. ) ;
#159 = DIRECTION ( 'NONE',  ( -3.491481338843133355E-15, 1.224646799147353207E-16, -1.000000000000000000 ) ) ;
#160 = CIRCLE ( 'NONE', #101, 3.049999999999999822 ) ;
#161 = CARTESIAN_POINT ( 'NONE',  ( 2.583696190743918430E-13, 2.287133668559319167E-32, 74.00000000000000000 ) ) ;
#162 = PERSON_AND_ORGANIZATION_ROLE ( 'creator' ) ;
#163 = PERSON_AND_ORGANIZATION ( #36, #199 ) ;
#164 = CIRCLE ( 'NONE', #71, 3.749999999999990674 ) ;
#165 = PRODUCT_DEFINITION_FORMATION_WITH_SPECIFIED_SOURCE ( 'ANY', '', #189, .NOT_KNOWN. ) ;
#166 = SHAPE_DEFINITION_REPRESENTATION ( #177, #127 ) ;
#167 = ADVANCED_FACE ( 'NONE', ( #93 ), #30, .F. ) ;
#168 = EDGE_LOOP ( 'NONE', ( #43 ) ) ;
#169 = PRODUCT_RELATED_PRODUCT_CATEGORY ( 'detail', '', ( #189 ) ) ;
#170 = DIRECTION ( 'NONE',  ( 0.0000000000000000000, 1.000000000000000000, 0.0000000000000000000 ) ) ;
#171 = CONICAL_SURFACE ( 'NONE', #54, 3.749999999999990674, 1.221730476396026388 ) ;
#172 = FACE_OUTER_BOUND ( 'NONE', #119, .T. ) ;
#173 = VERTEX_POINT ( 'NONE', #57 ) ;
#174 = VERTEX_POINT ( 'NONE', #126 ) ;
#175 = FACE_OUTER_BOUND ( 'NONE', #1, .T. ) ;
#176 = DIRECTION ( 'NONE',  ( 0.0000000000000000000, 1.000000000000000000, 0.0000000000000000000 ) ) ;
#177 = PRODUCT_DEFINITION_SHAPE ( 'NONE', 'NONE',  #47 ) ;
#178 = DATE_AND_TIME ( #52, #4 ) ;
#179 = DATE_AND_TIME ( #115, #13 ) ;
#180 = PERSON_AND_ORGANIZATION ( #36, #199 ) ;
#181 = DATE_AND_TIME ( #37, #97 ) ;
#182 = EDGE_LOOP ( 'NONE', ( #121 ) ) ;
#183 = EDGE_CURVE ( 'NONE', #80, #80, #28, .T. ) ;
#184 = ORIENTED_EDGE ( 'NONE', *, *, #183, .T. ) ;
#185 = DIRECTION ( 'NONE',  ( -3.491481338843133355E-15, 1.224646799147353207E-16, -1.000000000000000000 ) ) ;
#186 = DIRECTION ( 'NONE',  ( -4.275831445896958607E-31, -1.000000000000000000, -1.224646799147353207E-16 ) ) ;
#187 = AXIS2_PLACEMENT_3D ( 'NONE', #143, #6, #16 ) ;
#188 = CC_DESIGN_APPROVAL ( #83, ( #165 ) ) ;
#189 = PRODUCT ( '29121', '29121', '', ( #50 ) ) ;
#190 = AXIS2_PLACEMENT_3D ( 'NONE', #56, #185, #33 ) ;
#191 = CYLINDRICAL_SURFACE ( 'NONE', #123, 3.749999999999997335 ) ;
#192 = CIRCLE ( 'NONE', #8, 3.749999999999995115 ) ;
#193 = APPROVAL_DATE_TIME ( #9, #149 ) ;
#194 = APPROVAL_ROLE ( '' ) ;
#195 = ADVANCED_FACE ( 'NONE', ( #172 ), #171, .T. ) ;
#196 = DATE_TIME_ROLE ( 'creation_date' ) ;
#197 = COORDINATED_UNIVERSAL_TIME_OFFSET ( 1, 0, .AHEAD. ) ;
#198 = PERSON_AND_ORGANIZATION ( #36, #199 ) ;
#199 = ORGANIZATION ( 'UNSPECIFIED', 'UNSPECIFIED', '' ) ;
#200 = EDGE_LOOP ( 'NONE', ( #74 ) ) ;
#201 = FACE_OUTER_BOUND ( 'NONE', #76, .T. ) ;
#202 = CARTESIAN_POINT ( 'NONE',  ( 2.583696190743918430E-13, -9.062386313690413585E-15, 74.00000000000000000 ) ) ;
#203 = CLOSED_SHELL ( 'NONE', ( #167, #158, #138, #88 ) ) ;
ENDSEC;
END-ISO-10303-21;
