ISO-10303-21;
HEADER;
FILE_DESCRIPTION (( 'STEP AP203' ),
    '1' );
FILE_NAME ('29120.step',
    '2021-10-15T13:34:10',
    ( '' ),
    ( '' ),
    'SwSTEP 2.0',
    'SolidWorks 2019',
    '' );
FILE_SCHEMA (( 'CONFIG_CONTROL_DESIGN' ));
ENDSEC;

DATA;
#1 = CARTESIAN_POINT ( 'NONE',  ( 2.559255821372016181E-13, 3.499999999999991118, 73.29999999999999716 ) ) ;
#2 = PERSON_AND_ORGANIZATION ( #163, #143 ) ;
#3 = APPLICATION_PROTOCOL_DEFINITION ( 'international standard', 'config_control_design', 1994, #193 ) ;
#4 = ADVANCED_FACE ( 'NONE', ( #21 ), #201, .T. ) ;
#5 = CALENDAR_DATE ( 2021, 15, 10 ) ;
#6 = AXIS2_PLACEMENT_3D ( 'NONE', #175, #127, #31 ) ;
#7 = PERSON_AND_ORGANIZATION ( #163, #143 ) ;
#8 = LOCAL_TIME ( 15, 34, 10.00000000000000000, #67 ) ;
#9 = ORIENTED_EDGE ( 'NONE', *, *, #152, .T. ) ;
#10 = DIRECTION ( 'NONE',  ( 0.0000000000000000000, 1.000000000000000000, 0.0000000000000000000 ) ) ;
#11 = DIRECTION ( 'NONE',  ( -4.402125587170836318E-31, -1.000000000000000000, -1.239088197126294022E-16 ) ) ;
#12 = CC_DESIGN_DATE_AND_TIME_ASSIGNMENT ( #150, #52, ( #164 ) ) ;
#13 = DIRECTION ( 'NONE',  ( -3.491481338843133355E-15, 1.224646799147353207E-16, -1.000000000000000000 ) ) ;
#14 = FACE_OUTER_BOUND ( 'NONE', #187, .T. ) ;
#15 = PERSON_AND_ORGANIZATION_ROLE ( 'design_supplier' ) ;
#16 = DIRECTION ( 'NONE',  ( 0.0000000000000000000, 0.0000000000000000000, 1.000000000000000000 ) ) ;
#17 = UNCERTAINTY_MEASURE_WITH_UNIT (LENGTH_MEASURE( 1.000000000000000082E-05 ), #65, 'distance_accuracy_value', 'NONE');
#18 = PERSON_AND_ORGANIZATION ( #163, #143 ) ;
#19 = LOCAL_TIME ( 15, 34, 10.00000000000000000, #181 ) ;
#20 = ADVANCED_FACE ( 'NONE', ( #70, #121 ), #183, .T. ) ;
#21 = FACE_OUTER_BOUND ( 'NONE', #87, .T. ) ;
#22 = EDGE_LOOP ( 'NONE', ( #85 ) ) ;
#23 = AXIS2_PLACEMENT_3D ( 'NONE', #64, #172, #146 ) ;
#24 = VERTEX_POINT ( 'NONE', #1 ) ;
#25 = PLANE ( 'NONE',  #40 ) ;
#26 = CC_DESIGN_PERSON_AND_ORGANIZATION_ASSIGNMENT ( #18, #35, ( #151 ) ) ;
#27 = LOCAL_TIME ( 15, 34, 10.00000000000000000, #129 ) ;
#28 = APPLICATION_CONTEXT ( 'configuration controlled 3d designs of mechanical parts and assemblies' ) ;
#29 = CARTESIAN_POINT ( 'NONE',  ( 1.187103655206665341E-13, -4.163799117101000559E-15, 34.00000000000000000 ) ) ;
#30 = DIRECTION ( 'NONE',  ( 3.491481338843133355E-15, -1.224646799147353207E-16, 1.000000000000000000 ) ) ;
#31 = DIRECTION ( 'NONE',  ( 0.0000000000000000000, 1.000000000000000000, 0.0000000000000000000 ) ) ;
#32 = DATE_AND_TIME ( #5, #27 ) ;
#33 = PERSON_AND_ORGANIZATION_ROLE ( 'creator' ) ;
#34 = AXIS2_PLACEMENT_3D ( 'NONE', #173, #30, #11 ) ;
#35 = PERSON_AND_ORGANIZATION_ROLE ( 'design_owner' ) ;
#36 = DATE_AND_TIME ( #131, #8 ) ;
#37 = CC_DESIGN_APPROVAL ( #51, ( #180 ) ) ;
#38 = ORIENTED_EDGE ( 'NONE', *, *, #111, .T. ) ;
#39 = ADVANCED_FACE ( 'NONE', ( #166, #136 ), #132, .T. ) ;
#40 = AXIS2_PLACEMENT_3D ( 'NONE', #78, #140, #190 ) ;
#41 = ORIENTED_EDGE ( 'NONE', *, *, #137, .T. ) ;
#42 = CC_DESIGN_APPROVAL ( #184, ( #164 ) ) ;
#43 = EDGE_LOOP ( 'NONE', ( #154 ) ) ;
#44 = FACE_OUTER_BOUND ( 'NONE', #122, .T. ) ;
#45 = CC_DESIGN_SECURITY_CLASSIFICATION ( #164, ( #180 ) ) ;
#46 = VERTEX_POINT ( 'NONE', #191 ) ;
#47 = CARTESIAN_POINT ( 'NONE',  ( 2.559255821372016181E-13, -8.976661037750097719E-15, 73.29999999999999716 ) ) ;
#48 = PERSON_AND_ORGANIZATION ( #163, #143 ) ;
#49 = APPLICATION_PROTOCOL_DEFINITION ( 'international standard', 'config_control_design', 1994, #28 ) ;
#50 = MANIFOLD_SOLID_BREP ( 'Corps-Déplacer/Copier1[2]', #109 ) ;
#51 = APPROVAL ( #157, 'UNSPECIFIED' ) ;
#52 = DATE_TIME_ROLE ( 'classification_date' ) ;
#53 = ADVANCED_BREP_SHAPE_REPRESENTATION ( '29120', ( #189, #50, #194 ), #155 ) ;
#54 = CONICAL_SURFACE ( 'NONE', #34, 3.499999999999991118, 1.221730476396026388 ) ;
#55 = APPROVAL_ROLE ( '' ) ;
#56 = COORDINATED_UNIVERSAL_TIME_OFFSET ( 1, 0, .AHEAD. ) ;
#57 = DIRECTION ( 'NONE',  ( -4.275831445896958607E-31, -1.000000000000000000, -1.224646799147353207E-16 ) ) ;
#58 = ORIENTED_EDGE ( 'NONE', *, *, #73, .T. ) ;
#59 = CIRCLE ( 'NONE', #6, 2.799999999999999822 ) ;
#60 = CARTESIAN_POINT ( 'NONE',  ( 0.0000000000000000000, 0.0000000000000000000, 0.0000000000000000000 ) ) ;
#61 = CARTESIAN_POINT ( 'NONE',  ( 1.187103655206665341E-13, 2.624579619658240961E-32, 34.00000000000000000 ) ) ;
#62 = LOCAL_TIME ( 15, 34, 10.00000000000000000, #80 ) ;
#63 = AXIS2_PLACEMENT_3D ( 'NONE', #29, #192, #202 ) ;
#64 = CARTESIAN_POINT ( 'NONE',  ( 0.0000000000000000000, 0.0000000000000000000, 0.0000000000000000000 ) ) ;
#65 =( LENGTH_UNIT ( ) NAMED_UNIT ( * ) SI_UNIT ( .MILLI., .METRE. ) );
#66 = CC_DESIGN_PERSON_AND_ORGANIZATION_ASSIGNMENT ( #2, #117, ( #164 ) ) ;
#67 = COORDINATED_UNIVERSAL_TIME_OFFSET ( 1, 0, .AHEAD. ) ;
#68 = DIRECTION ( 'NONE',  ( 4.275831445896959482E-31, 1.000000000000000000, 1.224646799147353207E-16 ) ) ;
#69 = EDGE_LOOP ( 'NONE', ( #185 ) ) ;
#70 = FACE_OUTER_BOUND ( 'NONE', #69, .T. ) ;
#71 = CIRCLE ( 'NONE', #96, 3.499999999999991118 ) ;
#72 = CARTESIAN_POINT ( 'NONE',  ( 1.187103655206665341E-13, 3.499999999999991118, 34.00000000000000000 ) ) ;
#73 = EDGE_CURVE ( 'NONE', #156, #156, #71, .T. ) ;
#74 =( NAMED_UNIT ( * ) PLANE_ANGLE_UNIT ( ) SI_UNIT ( $, .RADIAN. ) );
#75 = FACE_OUTER_BOUND ( 'NONE', #82, .T. ) ;
#76 = EDGE_CURVE ( 'NONE', #110, #110, #59, .T. ) ;
#77 = DIRECTION ( 'NONE',  ( -3.491481338843133355E-15, 1.224646799147353207E-16, -1.000000000000000000 ) ) ;
#78 = CARTESIAN_POINT ( 'NONE',  ( 2.583696190743918430E-13, 2.099663695726586966E-32, 74.00000000000000000 ) ) ;
#79 = APPROVAL_DATE_TIME ( #116, #94 ) ;
#80 = COORDINATED_UNIVERSAL_TIME_OFFSET ( 1, 0, .AHEAD. ) ;
#81 = CC_DESIGN_PERSON_AND_ORGANIZATION_ASSIGNMENT ( #148, #15, ( #180 ) ) ;
#82 = EDGE_LOOP ( 'NONE', ( #38 ) ) ;
#83 = DIRECTION ( 'NONE',  ( 3.491481338843133355E-15, -1.224646799147353207E-16, 1.000000000000000000 ) ) ;
#84 = AXIS2_PLACEMENT_3D ( 'NONE', #88, #171, #125 ) ;
#85 = ORIENTED_EDGE ( 'NONE', *, *, #73, .F. ) ;
#86 = ADVANCED_FACE ( 'NONE', ( #14 ), #54, .T. ) ;
#87 = EDGE_LOOP ( 'NONE', ( #139 ) ) ;
#88 = CARTESIAN_POINT ( 'NONE',  ( 1.187103655206665341E-13, -4.163799117101000559E-15, 34.00000000000000000 ) ) ;
#89 = CYLINDRICAL_SURFACE ( 'NONE', #23, 3.499999999999993339 ) ;
#90 = FACE_OUTER_BOUND ( 'NONE', #165, .T. ) ;
#91 = CLOSED_SHELL ( 'NONE', ( #99, #20, #39, #159 ) ) ;
#92 = CARTESIAN_POINT ( 'NONE',  ( 4.447783482921879292E-15, -1.560072438326576080E-16, 1.273895819931721851 ) ) ;
#93 = DIRECTION ( 'NONE',  ( 3.491481338843133355E-15, -1.224646799147353207E-16, 1.000000000000000000 ) ) ;
#94 = APPROVAL ( #134, 'UNSPECIFIED' ) ;
#95 = MECHANICAL_CONTEXT ( 'NONE', #193, 'mechanical' ) ;
#96 = AXIS2_PLACEMENT_3D ( 'NONE', #92, #77, #145 ) ;
#97 = CC_DESIGN_APPROVAL ( #94, ( #167 ) ) ;
#98 = PERSON_AND_ORGANIZATION ( #163, #143 ) ;
#99 = ADVANCED_FACE ( 'NONE', ( #75 ), #106, .F. ) ;
#100 = DATE_TIME_ROLE ( 'creation_date' ) ;
#101 = CIRCLE ( 'NONE', #174, 3.500000000000000000 ) ;
#102 = EDGE_LOOP ( 'NONE', ( #200 ) ) ;
#103 = EDGE_LOOP ( 'NONE', ( #9 ) ) ;
#104 = CIRCLE ( 'NONE', #63, 3.499999999999995115 ) ;
#105 =( NAMED_UNIT ( * ) SI_UNIT ( $, .STERADIAN. ) SOLID_ANGLE_UNIT ( ) );
#106 = PLANE ( 'NONE',  #119 ) ;
#107 = PRODUCT_RELATED_PRODUCT_CATEGORY ( 'detail', '', ( #151 ) ) ;
#108 = DIRECTION ( 'NONE',  ( 0.0000000000000000000, 1.000000000000000000, 0.0000000000000000000 ) ) ;
#109 = CLOSED_SHELL ( 'NONE', ( #86, #195, #4 ) ) ;
#110 = VERTEX_POINT ( 'NONE', #124 ) ;
#111 = EDGE_CURVE ( 'NONE', #46, #46, #104, .T. ) ;
#112 = APPROVAL_DATE_TIME ( #32, #184 ) ;
#113 = PERSON_AND_ORGANIZATION ( #163, #143 ) ;
#114 = DESIGN_CONTEXT ( 'detailed design', #28, 'design' ) ;
#115 = AXIS2_PLACEMENT_3D ( 'NONE', #153, #83, #57 ) ;
#116 = DATE_AND_TIME ( #182, #62 ) ;
#117 = PERSON_AND_ORGANIZATION_ROLE ( 'classification_officer' ) ;
#118 = APPROVAL_ROLE ( '' ) ;
#119 = AXIS2_PLACEMENT_3D ( 'NONE', #61, #93, #203 ) ;
#120 = CC_DESIGN_PERSON_AND_ORGANIZATION_ASSIGNMENT ( #198, #33, ( #167 ) ) ;
#121 = FACE_OUTER_BOUND ( 'NONE', #103, .T. ) ;
#122 = EDGE_LOOP ( 'NONE', ( #168 ) ) ;
#123 = FACE_OUTER_BOUND ( 'NONE', #22, .T. ) ;
#124 = CARTESIAN_POINT ( 'NONE',  ( 2.583696190743918430E-13, 2.799999999999990941, 74.00000000000000000 ) ) ;
#125 = DIRECTION ( 'NONE',  ( 0.0000000000000000000, 1.000000000000000000, 0.0000000000000000000 ) ) ;
#126 = CARTESIAN_POINT ( 'NONE',  ( 4.447783482921880870E-15, 3.499999999999991118, 1.273895819931722295 ) ) ;
#127 = DIRECTION ( 'NONE',  ( -3.491481338843133355E-15, 1.224646799147353207E-16, -1.000000000000000000 ) ) ;
#128 = SECURITY_CLASSIFICATION_LEVEL ( 'unclassified' ) ;
#129 = COORDINATED_UNIVERSAL_TIME_OFFSET ( 1, 0, .AHEAD. ) ;
#130 = PRODUCT_DEFINITION_SHAPE ( 'NONE', 'NONE',  #167 ) ;
#131 = CALENDAR_DATE ( 2021, 15, 10 ) ;
#132 = CONICAL_SURFACE ( 'NONE', #197, 2.799999999999999822, 0.7853981633974439491 ) ;
#133 = DATE_AND_TIME ( #158, #19 ) ;
#134 = APPROVAL_STATUS ( 'not_yet_approved' ) ;
#135 = LOCAL_TIME ( 15, 34, 10.00000000000000000, #56 ) ;
#136 = FACE_BOUND ( 'NONE', #102, .T. ) ;
#137 = EDGE_CURVE ( 'NONE', #188, #188, #178, .T. ) ;
#138 = APPROVAL_PERSON_ORGANIZATION ( #7, #184, #160 ) ;
#139 = ORIENTED_EDGE ( 'NONE', *, *, #137, .F. ) ;
#140 = DIRECTION ( 'NONE',  ( -3.491481338843133355E-15, 1.224646799147353207E-16, -1.000000000000000000 ) ) ;
#141 = DIRECTION ( 'NONE',  ( -3.491481338843133355E-15, 1.224646799147353207E-16, -1.000000000000000000 ) ) ;
#142 = CC_DESIGN_PERSON_AND_ORGANIZATION_ASSIGNMENT ( #48, #199, ( #180 ) ) ;
#143 = ORGANIZATION ( 'UNSPECIFIED', 'UNSPECIFIED', '' ) ;
#144 = AXIS2_PLACEMENT_3D ( 'NONE', #60, #169, #68 ) ;
#145 = DIRECTION ( 'NONE',  ( 4.402125587170836318E-31, 1.000000000000000000, 1.239088197126294022E-16 ) ) ;
#146 = DIRECTION ( 'NONE',  ( 4.275831445896958607E-31, 1.000000000000000000, 1.224646799147353207E-16 ) ) ;
#147 = APPROVAL_STATUS ( 'not_yet_approved' ) ;
#148 = PERSON_AND_ORGANIZATION ( #163, #143 ) ;
#149 = DIRECTION ( 'NONE',  ( 1.000000000000000000, 0.0000000000000000000, 0.0000000000000000000 ) ) ;
#150 = DATE_AND_TIME ( #177, #135 ) ;
#151 = PRODUCT ( '29120', '29120', '', ( #95 ) ) ;
#152 = EDGE_CURVE ( 'NONE', #24, #24, #101, .T. ) ;
#153 = CARTESIAN_POINT ( 'NONE',  ( 1.187103655206665341E-13, 2.624579619658240961E-32, 34.00000000000000000 ) ) ;
#154 = ORIENTED_EDGE ( 'NONE', *, *, #152, .F. ) ;
#155 =( GEOMETRIC_REPRESENTATION_CONTEXT ( 3 ) GLOBAL_UNCERTAINTY_ASSIGNED_CONTEXT ( ( #17 ) ) GLOBAL_UNIT_ASSIGNED_CONTEXT ( ( #65, #74, #105 ) ) REPRESENTATION_CONTEXT ( 'NONE', 'WORKASPACE' ) );
#156 = VERTEX_POINT ( 'NONE', #126 ) ;
#157 = APPROVAL_STATUS ( 'not_yet_approved' ) ;
#158 = CALENDAR_DATE ( 2021, 15, 10 ) ;
#159 = ADVANCED_FACE ( 'NONE', ( #44 ), #25, .F. ) ;
#160 = APPROVAL_ROLE ( '' ) ;
#161 = APPROVAL_PERSON_ORGANIZATION ( #113, #51, #55 ) ;
#162 = SHAPE_DEFINITION_REPRESENTATION ( #130, #53 ) ;
#163 = PERSON ( 'UNSPECIFIED', 'UNSPECIFIED', 'UNSPECIFIED', ('UNSPECIFIED'), ('UNSPECIFIED'), ('UNSPECIFIED') ) ;
#164 = SECURITY_CLASSIFICATION ( '', '', #128 ) ;
#165 = EDGE_LOOP ( 'NONE', ( #41 ) ) ;
#166 = FACE_OUTER_BOUND ( 'NONE', #43, .T. ) ;
#167 = PRODUCT_DEFINITION ( 'UNKNOWN', '', #180, #114 ) ;
#168 = ORIENTED_EDGE ( 'NONE', *, *, #76, .F. ) ;
#169 = DIRECTION ( 'NONE',  ( -3.491481338843133355E-15, 1.224646799147353207E-16, -1.000000000000000000 ) ) ;
#170 = CARTESIAN_POINT ( 'NONE',  ( 2.583696190743918430E-13, -9.062386313690413585E-15, 74.00000000000000000 ) ) ;
#171 = DIRECTION ( 'NONE',  ( -3.491481338843133355E-15, 1.224646799147353207E-16, -1.000000000000000000 ) ) ;
#172 = DIRECTION ( 'NONE',  ( -3.491481338843133355E-15, 1.224646799147353207E-16, -1.000000000000000000 ) ) ;
#173 = CARTESIAN_POINT ( 'NONE',  ( 4.447783482921879292E-15, -1.560072438326576080E-16, 1.273895819931721851 ) ) ;
#174 = AXIS2_PLACEMENT_3D ( 'NONE', #47, #141, #10 ) ;
#175 = CARTESIAN_POINT ( 'NONE',  ( 2.583696190743918430E-13, -9.062386313690413585E-15, 74.00000000000000000 ) ) ;
#176 = CC_DESIGN_DATE_AND_TIME_ASSIGNMENT ( #36, #100, ( #167 ) ) ;
#177 = CALENDAR_DATE ( 2021, 15, 10 ) ;
#178 = CIRCLE ( 'NONE', #84, 3.499999999999995115 ) ;
#179 = CARTESIAN_POINT ( 'NONE',  ( 0.0000000000000000000, 0.0000000000000000000, 0.0000000000000000000 ) ) ;
#180 = PRODUCT_DEFINITION_FORMATION_WITH_SPECIFIED_SOURCE ( 'ANY', '', #151, .NOT_KNOWN. ) ;
#181 = COORDINATED_UNIVERSAL_TIME_OFFSET ( 1, 0, .AHEAD. ) ;
#182 = CALENDAR_DATE ( 2021, 15, 10 ) ;
#183 = CYLINDRICAL_SURFACE ( 'NONE', #144, 3.499999999999997780 ) ;
#184 = APPROVAL ( #147, 'UNSPECIFIED' ) ;
#185 = ORIENTED_EDGE ( 'NONE', *, *, #111, .F. ) ;
#186 = APPROVAL_PERSON_ORGANIZATION ( #98, #94, #118 ) ;
#187 = EDGE_LOOP ( 'NONE', ( #58 ) ) ;
#188 = VERTEX_POINT ( 'NONE', #72 ) ;
#189 = MANIFOLD_SOLID_BREP ( 'Corps-Déplacer/Copier1[1]', #91 ) ;
#190 = DIRECTION ( 'NONE',  ( 4.275831445896958607E-31, 1.000000000000000000, 1.224646799147353207E-16 ) ) ;
#191 = CARTESIAN_POINT ( 'NONE',  ( 1.187103655206665341E-13, 3.499999999999991118, 34.00000000000000000 ) ) ;
#192 = DIRECTION ( 'NONE',  ( -3.491481338843133355E-15, 1.224646799147353207E-16, -1.000000000000000000 ) ) ;
#193 = APPLICATION_CONTEXT ( 'configuration controlled 3d designs of mechanical parts and assemblies' ) ;
#194 = AXIS2_PLACEMENT_3D ( 'NONE', #179, #16, #149 ) ;
#195 = ADVANCED_FACE ( 'NONE', ( #123, #90 ), #89, .T. ) ;
#196 = APPROVAL_DATE_TIME ( #133, #51 ) ;
#197 = AXIS2_PLACEMENT_3D ( 'NONE', #170, #13, #108 ) ;
#198 = PERSON_AND_ORGANIZATION ( #163, #143 ) ;
#199 = PERSON_AND_ORGANIZATION_ROLE ( 'creator' ) ;
#200 = ORIENTED_EDGE ( 'NONE', *, *, #76, .T. ) ;
#201 = PLANE ( 'NONE',  #115 ) ;
#202 = DIRECTION ( 'NONE',  ( 0.0000000000000000000, 1.000000000000000000, 0.0000000000000000000 ) ) ;
#203 = DIRECTION ( 'NONE',  ( -4.275831445896958607E-31, -1.000000000000000000, -1.224646799147353207E-16 ) ) ;
ENDSEC;
END-ISO-10303-21;
