ISO-10303-21;
HEADER;
FILE_DESCRIPTION (( 'STEP AP203' ),
    '1' );
FILE_NAME ('29119.step',
    '2021-10-15T13:34:09',
    ( '' ),
    ( '' ),
    'SwSTEP 2.0',
    'SolidWorks 2019',
    '' );
FILE_SCHEMA (( 'CONFIG_CONTROL_DESIGN' ));
ENDSEC;

DATA;
#1 = FACE_OUTER_BOUND ( 'NONE', #152, .T. ) ;
#2 = APPLICATION_CONTEXT ( 'configuration controlled 3d designs of mechanical parts and assemblies' ) ;
#3 = LOCAL_TIME ( 15, 34, 9.000000000000000000, #60 ) ;
#4 = VERTEX_POINT ( 'NONE', #110 ) ;
#5 = DIRECTION ( 'NONE',  ( -3.491481338843133355E-15, 1.224646799147353207E-16, -1.000000000000000000 ) ) ;
#6 = APPROVAL_DATE_TIME ( #194, #8 ) ;
#7 = PERSON_AND_ORGANIZATION_ROLE ( 'classification_officer' ) ;
#8 = APPROVAL ( #30, 'UNSPECIFIED' ) ;
#9 = APPROVAL_DATE_TIME ( #114, #12 ) ;
#10 = ORIENTED_EDGE ( 'NONE', *, *, #46, .F. ) ;
#11 = EDGE_LOOP ( 'NONE', ( #201 ) ) ;
#12 = APPROVAL ( #71, 'UNSPECIFIED' ) ;
#13 = DIRECTION ( 'NONE',  ( 4.275831445896958607E-31, 1.000000000000000000, 1.224646799147353207E-16 ) ) ;
#14 = PERSON ( 'UNSPECIFIED', 'UNSPECIFIED', 'UNSPECIFIED', ('UNSPECIFIED'), ('UNSPECIFIED'), ('UNSPECIFIED') ) ;
#15 = AXIS2_PLACEMENT_3D ( 'NONE', #69, #121, #190 ) ;
#16 = ORIENTED_EDGE ( 'NONE', *, *, #137, .F. ) ;
#17 = PRODUCT_DEFINITION_FORMATION_WITH_SPECIFIED_SOURCE ( 'ANY', '', #54, .NOT_KNOWN. ) ;
#18 = CARTESIAN_POINT ( 'NONE',  ( 2.583696190743918430E-13, 2.024675706593494360E-32, 74.00000000000000000 ) ) ;
#19 = DIRECTION ( 'NONE',  ( 3.491481338843133355E-15, -1.224646799147353207E-16, 1.000000000000000000 ) ) ;
#20 = APPROVAL ( #163, 'UNSPECIFIED' ) ;
#21 = DIRECTION ( 'NONE',  ( 3.491481338843133355E-15, -1.224646799147353207E-16, 1.000000000000000000 ) ) ;
#22 =( GEOMETRIC_REPRESENTATION_CONTEXT ( 3 ) GLOBAL_UNCERTAINTY_ASSIGNED_CONTEXT ( ( #134 ) ) GLOBAL_UNIT_ASSIGNED_CONTEXT ( ( #155, #79, #68 ) ) REPRESENTATION_CONTEXT ( 'NONE', 'WORKASPACE' ) );
#23 = DIRECTION ( 'NONE',  ( 3.491481338843133355E-15, -1.224646799147353207E-16, 1.000000000000000000 ) ) ;
#24 = COORDINATED_UNIVERSAL_TIME_OFFSET ( 1, 0, .AHEAD. ) ;
#25 = CONICAL_SURFACE ( 'NONE', #53, 3.399999999999991029, 1.221730476396026388 ) ;
#26 = CALENDAR_DATE ( 2021, 15, 10 ) ;
#27 = PERSON_AND_ORGANIZATION ( #14, #147 ) ;
#28 = EDGE_LOOP ( 'NONE', ( #76 ) ) ;
#29 = EDGE_CURVE ( 'NONE', #158, #158, #123, .T. ) ;
#30 = APPROVAL_STATUS ( 'not_yet_approved' ) ;
#31 = EDGE_LOOP ( 'NONE', ( #106 ) ) ;
#32 = DIRECTION ( 'NONE',  ( -3.491481338843133355E-15, 1.224646799147353207E-16, -1.000000000000000000 ) ) ;
#33 = AXIS2_PLACEMENT_3D ( 'NONE', #118, #32, #105 ) ;
#34 = LOCAL_TIME ( 15, 34, 9.000000000000000000, #145 ) ;
#35 = PLANE ( 'NONE',  #196 ) ;
#36 = FACE_OUTER_BOUND ( 'NONE', #133, .T. ) ;
#37 = CARTESIAN_POINT ( 'NONE',  ( 2.583696190743918430E-13, -9.062386313690413585E-15, 74.00000000000000000 ) ) ;
#38 = AXIS2_PLACEMENT_3D ( 'NONE', #91, #175, #179 ) ;
#39 = CALENDAR_DATE ( 2021, 15, 10 ) ;
#40 = MECHANICAL_CONTEXT ( 'NONE', #2, 'mechanical' ) ;
#41 = CIRCLE ( 'NONE', #33, 3.399999999999995470 ) ;
#42 = AXIS2_PLACEMENT_3D ( 'NONE', #18, #51, #113 ) ;
#43 = APPROVAL_PERSON_ORGANIZATION ( #127, #12, #87 ) ;
#44 = CALENDAR_DATE ( 2021, 15, 10 ) ;
#45 = CYLINDRICAL_SURFACE ( 'NONE', #202, 3.399999999999993250 ) ;
#46 = EDGE_CURVE ( 'NONE', #185, #185, #41, .T. ) ;
#47 = PLANE ( 'NONE',  #95 ) ;
#48 = CARTESIAN_POINT ( 'NONE',  ( 2.559255821372016181E-13, 3.399999999999991029, 73.29999999999998295 ) ) ;
#49 = DIRECTION ( 'NONE',  ( -3.491481338843133355E-15, 1.224646799147353207E-16, -1.000000000000000000 ) ) ;
#50 = DIRECTION ( 'NONE',  ( -3.491481338843133355E-15, 1.224646799147353207E-16, -1.000000000000000000 ) ) ;
#51 = DIRECTION ( 'NONE',  ( -3.491481338843133355E-15, 1.224646799147353207E-16, -1.000000000000000000 ) ) ;
#52 = AXIS2_PLACEMENT_3D ( 'NONE', #135, #92, #182 ) ;
#53 = AXIS2_PLACEMENT_3D ( 'NONE', #139, #19, #174 ) ;
#54 = PRODUCT ( '29119', '29119', '', ( #40 ) ) ;
#55 = CIRCLE ( 'NONE', #170, 2.700000000000000178 ) ;
#56 = SECURITY_CLASSIFICATION_LEVEL ( 'unclassified' ) ;
#57 = ADVANCED_FACE ( 'NONE', ( #131, #116 ), #45, .T. ) ;
#58 = CC_DESIGN_APPROVAL ( #8, ( #65 ) ) ;
#59 = EDGE_LOOP ( 'NONE', ( #184 ) ) ;
#60 = COORDINATED_UNIVERSAL_TIME_OFFSET ( 1, 0, .AHEAD. ) ;
#61 = ORIENTED_EDGE ( 'NONE', *, *, #85, .F. ) ;
#62 = ADVANCED_FACE ( 'NONE', ( #144 ), #25, .T. ) ;
#63 = DESIGN_CONTEXT ( 'detailed design', #180, 'design' ) ;
#64 = EDGE_CURVE ( 'NONE', #4, #4, #136, .T. ) ;
#65 = SECURITY_CLASSIFICATION ( '', '', #56 ) ;
#66 = CARTESIAN_POINT ( 'NONE',  ( 0.0000000000000000000, 0.0000000000000000000, 0.0000000000000000000 ) ) ;
#67 = CC_DESIGN_APPROVAL ( #12, ( #17 ) ) ;
#68 =( NAMED_UNIT ( * ) SI_UNIT ( $, .STERADIAN. ) SOLID_ANGLE_UNIT ( ) );
#69 = CARTESIAN_POINT ( 'NONE',  ( 1.187103655206665341E-13, -4.163799117101000559E-15, 34.00000000000000000 ) ) ;
#70 = DATE_AND_TIME ( #39, #78 ) ;
#71 = APPROVAL_STATUS ( 'not_yet_approved' ) ;
#72 = PERSON_AND_ORGANIZATION ( #14, #147 ) ;
#73 = PERSON_AND_ORGANIZATION ( #14, #147 ) ;
#74 = DATE_AND_TIME ( #128, #3 ) ;
#75 = ADVANCED_FACE ( 'NONE', ( #126, #98 ), #119, .T. ) ;
#76 = ORIENTED_EDGE ( 'NONE', *, *, #64, .F. ) ;
#77 = EDGE_LOOP ( 'NONE', ( #199 ) ) ;
#78 = LOCAL_TIME ( 15, 34, 9.000000000000000000, #24 ) ;
#79 =( NAMED_UNIT ( * ) PLANE_ANGLE_UNIT ( ) SI_UNIT ( $, .RADIAN. ) );
#80 = ADVANCED_FACE ( 'NONE', ( #188 ), #47, .F. ) ;
#81 = CARTESIAN_POINT ( 'NONE',  ( 2.583696190743918430E-13, -9.062386313690413585E-15, 74.00000000000000000 ) ) ;
#82 = CC_DESIGN_DATE_AND_TIME_ASSIGNMENT ( #74, #166, ( #65 ) ) ;
#83 = CARTESIAN_POINT ( 'NONE',  ( 1.187103655206665341E-13, 2.549591630525148080E-32, 34.00000000000000000 ) ) ;
#84 = DIRECTION ( 'NONE',  ( -4.275831445896958607E-31, -1.000000000000000000, -1.224646799147353207E-16 ) ) ;
#85 = EDGE_CURVE ( 'NONE', #111, #111, #88, .T. ) ;
#86 = VERTEX_POINT ( 'NONE', #107 ) ;
#87 = APPROVAL_ROLE ( '' ) ;
#88 = CIRCLE ( 'NONE', #15, 3.399999999999995470 ) ;
#89 = DATE_AND_TIME ( #26, #138 ) ;
#90 = CC_DESIGN_PERSON_AND_ORGANIZATION_ASSIGNMENT ( #27, #100, ( #168 ) ) ;
#91 = CARTESIAN_POINT ( 'NONE',  ( 0.0000000000000000000, 0.0000000000000000000, 0.0000000000000000000 ) ) ;
#92 = DIRECTION ( 'NONE',  ( -3.491481338843133355E-15, 1.224646799147353207E-16, -1.000000000000000000 ) ) ;
#93 = PRODUCT_DEFINITION_SHAPE ( 'NONE', 'NONE',  #168 ) ;
#94 = EDGE_LOOP ( 'NONE', ( #10 ) ) ;
#95 = AXIS2_PLACEMENT_3D ( 'NONE', #83, #21, #112 ) ;
#96 = DIRECTION ( 'NONE',  ( -3.491481338843133355E-15, 1.224646799147353207E-16, -1.000000000000000000 ) ) ;
#97 = CYLINDRICAL_SURFACE ( 'NONE', #203, 3.399999999999997691 ) ;
#98 = FACE_BOUND ( 'NONE', #59, .T. ) ;
#99 = DIRECTION ( 'NONE',  ( 0.0000000000000000000, 1.000000000000000000, 0.0000000000000000000 ) ) ;
#100 = PERSON_AND_ORGANIZATION_ROLE ( 'creator' ) ;
#101 = APPLICATION_PROTOCOL_DEFINITION ( 'international standard', 'config_control_design', 1994, #180 ) ;
#102 = CLOSED_SHELL ( 'NONE', ( #80, #193, #75, #108 ) ) ;
#103 = APPLICATION_PROTOCOL_DEFINITION ( 'international standard', 'config_control_design', 1994, #2 ) ;
#104 = PERSON_AND_ORGANIZATION ( #14, #147 ) ;
#105 = DIRECTION ( 'NONE',  ( 0.0000000000000000000, 1.000000000000000000, 0.0000000000000000000 ) ) ;
#106 = ORIENTED_EDGE ( 'NONE', *, *, #46, .T. ) ;
#107 = CARTESIAN_POINT ( 'NONE',  ( 2.583696190743918430E-13, 2.699999999999990852, 74.00000000000000000 ) ) ;
#108 = ADVANCED_FACE ( 'NONE', ( #1 ), #156, .F. ) ;
#109 = PRODUCT_RELATED_PRODUCT_CATEGORY ( 'detail', '', ( #54 ) ) ;
#110 = CARTESIAN_POINT ( 'NONE',  ( 4.320703954838398154E-15, 3.399999999999991029, 1.237498796505101417 ) ) ;
#111 = VERTEX_POINT ( 'NONE', #173 ) ;
#112 = DIRECTION ( 'NONE',  ( -4.275831445896958607E-31, -1.000000000000000000, -1.224646799147353207E-16 ) ) ;
#113 = DIRECTION ( 'NONE',  ( 4.275831445896958607E-31, 1.000000000000000000, 1.224646799147353207E-16 ) ) ;
#114 = DATE_AND_TIME ( #44, #154 ) ;
#115 = APPROVAL_PERSON_ORGANIZATION ( #72, #8, #150 ) ;
#116 = FACE_OUTER_BOUND ( 'NONE', #31, .T. ) ;
#117 = APPROVAL_ROLE ( '' ) ;
#118 = CARTESIAN_POINT ( 'NONE',  ( 1.187103655206665341E-13, -4.163799117101000559E-15, 34.00000000000000000 ) ) ;
#119 = CONICAL_SURFACE ( 'NONE', #171, 2.700000000000000178, 0.7853981633974340681 ) ;
#120 = CC_DESIGN_PERSON_AND_ORGANIZATION_ASSIGNMENT ( #191, #176, ( #54 ) ) ;
#121 = DIRECTION ( 'NONE',  ( -3.491481338843133355E-15, 1.224646799147353207E-16, -1.000000000000000000 ) ) ;
#122 = MANIFOLD_SOLID_BREP ( 'Corps-Déplacer/Copier1[1]', #102 ) ;
#123 = CIRCLE ( 'NONE', #52, 3.400000000000000355 ) ;
#124 = DIRECTION ( 'NONE',  ( 4.275831445896958607E-31, 1.000000000000000000, 1.224646799147352961E-16 ) ) ;
#125 = FACE_OUTER_BOUND ( 'NONE', #94, .T. ) ;
#126 = FACE_OUTER_BOUND ( 'NONE', #11, .T. ) ;
#127 = PERSON_AND_ORGANIZATION ( #14, #147 ) ;
#128 = CALENDAR_DATE ( 2021, 15, 10 ) ;
#129 = CALENDAR_DATE ( 2021, 15, 10 ) ;
#130 = SHAPE_DEFINITION_REPRESENTATION ( #93, #164 ) ;
#131 = FACE_OUTER_BOUND ( 'NONE', #28, .T. ) ;
#132 = CC_DESIGN_SECURITY_CLASSIFICATION ( #65, ( #17 ) ) ;
#133 = EDGE_LOOP ( 'NONE', ( #61 ) ) ;
#134 = UNCERTAINTY_MEASURE_WITH_UNIT (LENGTH_MEASURE( 1.000000000000000082E-05 ), #155, 'distance_accuracy_value', 'NONE');
#135 = CARTESIAN_POINT ( 'NONE',  ( 2.559255821372016181E-13, -8.976661037750096142E-15, 73.29999999999998295 ) ) ;
#136 = CIRCLE ( 'NONE', #183, 3.399999999999991029 ) ;
#137 = EDGE_CURVE ( 'NONE', #86, #86, #55, .T. ) ;
#138 = LOCAL_TIME ( 15, 34, 9.000000000000000000, #160 ) ;
#139 = CARTESIAN_POINT ( 'NONE',  ( 4.320703954838396576E-15, -1.515498940088673801E-16, 1.237498796505101195 ) ) ;
#140 = DIRECTION ( 'NONE',  ( 0.0000000000000000000, 1.000000000000000000, 0.0000000000000000000 ) ) ;
#141 = CC_DESIGN_PERSON_AND_ORGANIZATION_ASSIGNMENT ( #104, #181, ( #17 ) ) ;
#142 = DIRECTION ( 'NONE',  ( 4.531599869146449666E-31, 1.000000000000000000, 1.275531967630008697E-16 ) ) ;
#143 = FACE_OUTER_BOUND ( 'NONE', #77, .T. ) ;
#144 = FACE_OUTER_BOUND ( 'NONE', #178, .T. ) ;
#145 = COORDINATED_UNIVERSAL_TIME_OFFSET ( 1, 0, .AHEAD. ) ;
#146 = CC_DESIGN_PERSON_AND_ORGANIZATION_ASSIGNMENT ( #73, #7, ( #65 ) ) ;
#147 = ORGANIZATION ( 'UNSPECIFIED', 'UNSPECIFIED', '' ) ;
#148 = PERSON_AND_ORGANIZATION_ROLE ( 'creator' ) ;
#149 = DATE_TIME_ROLE ( 'creation_date' ) ;
#150 = APPROVAL_ROLE ( '' ) ;
#151 = ORIENTED_EDGE ( 'NONE', *, *, #64, .T. ) ;
#152 = EDGE_LOOP ( 'NONE', ( #16 ) ) ;
#153 = EDGE_LOOP ( 'NONE', ( #165 ) ) ;
#154 = LOCAL_TIME ( 15, 34, 9.000000000000000000, #167 ) ;
#155 =( LENGTH_UNIT ( ) NAMED_UNIT ( * ) SI_UNIT ( .MILLI., .METRE. ) );
#156 = PLANE ( 'NONE',  #42 ) ;
#157 = CARTESIAN_POINT ( 'NONE',  ( 1.187103655206665341E-13, 2.549591630525148080E-32, 34.00000000000000000 ) ) ;
#158 = VERTEX_POINT ( 'NONE', #48 ) ;
#159 = CARTESIAN_POINT ( 'NONE',  ( 1.187103655206665341E-13, 3.399999999999991029, 34.00000000000000000 ) ) ;
#160 = COORDINATED_UNIVERSAL_TIME_OFFSET ( 1, 0, .AHEAD. ) ;
#161 = PERSON_AND_ORGANIZATION ( #14, #147 ) ;
#162 = APPROVAL_PERSON_ORGANIZATION ( #161, #20, #117 ) ;
#163 = APPROVAL_STATUS ( 'not_yet_approved' ) ;
#164 = ADVANCED_BREP_SHAPE_REPRESENTATION ( '29119', ( #122, #200, #38 ), #22 ) ;
#165 = ORIENTED_EDGE ( 'NONE', *, *, #85, .T. ) ;
#166 = DATE_TIME_ROLE ( 'classification_date' ) ;
#167 = COORDINATED_UNIVERSAL_TIME_OFFSET ( 1, 0, .AHEAD. ) ;
#168 = PRODUCT_DEFINITION ( 'UNKNOWN', '', #17, #63 ) ;
#169 = CARTESIAN_POINT ( 'NONE',  ( 0.0000000000000000000, 0.0000000000000000000, 0.0000000000000000000 ) ) ;
#170 = AXIS2_PLACEMENT_3D ( 'NONE', #37, #96, #99 ) ;
#171 = AXIS2_PLACEMENT_3D ( 'NONE', #81, #50, #140 ) ;
#172 = CARTESIAN_POINT ( 'NONE',  ( 4.320703954838396576E-15, -1.515498940088673801E-16, 1.237498796505101195 ) ) ;
#173 = CARTESIAN_POINT ( 'NONE',  ( 1.187103655206665341E-13, 3.399999999999991029, 34.00000000000000000 ) ) ;
#174 = DIRECTION ( 'NONE',  ( -4.531599869146449666E-31, -1.000000000000000000, -1.275531967630008697E-16 ) ) ;
#175 = DIRECTION ( 'NONE',  ( 0.0000000000000000000, 0.0000000000000000000, 1.000000000000000000 ) ) ;
#176 = PERSON_AND_ORGANIZATION_ROLE ( 'design_owner' ) ;
#177 = ADVANCED_FACE ( 'NONE', ( #125 ), #35, .T. ) ;
#178 = EDGE_LOOP ( 'NONE', ( #151 ) ) ;
#179 = DIRECTION ( 'NONE',  ( 1.000000000000000000, 0.0000000000000000000, 0.0000000000000000000 ) ) ;
#180 = APPLICATION_CONTEXT ( 'configuration controlled 3d designs of mechanical parts and assemblies' ) ;
#181 = PERSON_AND_ORGANIZATION_ROLE ( 'design_supplier' ) ;
#182 = DIRECTION ( 'NONE',  ( 0.0000000000000000000, 1.000000000000000000, 0.0000000000000000000 ) ) ;
#183 = AXIS2_PLACEMENT_3D ( 'NONE', #172, #5, #142 ) ;
#184 = ORIENTED_EDGE ( 'NONE', *, *, #137, .T. ) ;
#185 = VERTEX_POINT ( 'NONE', #159 ) ;
#186 = CC_DESIGN_DATE_AND_TIME_ASSIGNMENT ( #89, #149, ( #168 ) ) ;
#187 = CLOSED_SHELL ( 'NONE', ( #62, #57, #177 ) ) ;
#188 = FACE_OUTER_BOUND ( 'NONE', #153, .T. ) ;
#189 = CC_DESIGN_APPROVAL ( #20, ( #168 ) ) ;
#190 = DIRECTION ( 'NONE',  ( 0.0000000000000000000, 1.000000000000000000, 0.0000000000000000000 ) ) ;
#191 = PERSON_AND_ORGANIZATION ( #14, #147 ) ;
#192 = PERSON_AND_ORGANIZATION ( #14, #147 ) ;
#193 = ADVANCED_FACE ( 'NONE', ( #36, #143 ), #97, .T. ) ;
#194 = DATE_AND_TIME ( #129, #34 ) ;
#195 = APPROVAL_DATE_TIME ( #70, #20 ) ;
#196 = AXIS2_PLACEMENT_3D ( 'NONE', #157, #23, #84 ) ;
#197 = DIRECTION ( 'NONE',  ( -3.491481338843133355E-15, 1.224646799147353207E-16, -1.000000000000000000 ) ) ;
#198 = CC_DESIGN_PERSON_AND_ORGANIZATION_ASSIGNMENT ( #192, #148, ( #17 ) ) ;
#199 = ORIENTED_EDGE ( 'NONE', *, *, #29, .T. ) ;
#200 = MANIFOLD_SOLID_BREP ( 'Corps-Déplacer/Copier1[2]', #187 ) ;
#201 = ORIENTED_EDGE ( 'NONE', *, *, #29, .F. ) ;
#202 = AXIS2_PLACEMENT_3D ( 'NONE', #169, #197, #13 ) ;
#203 = AXIS2_PLACEMENT_3D ( 'NONE', #66, #49, #124 ) ;
ENDSEC;
END-ISO-10303-21;
