ISO-10303-21;
HEADER;
FILE_DESCRIPTION (( 'STEP AP203' ),
    '1' );
FILE_NAME ('29118.step',
    '2021-10-15T13:34:09',
    ( '' ),
    ( '' ),
    'SwSTEP 2.0',
    'SolidWorks 2019',
    '' );
FILE_SCHEMA (( 'CONFIG_CONTROL_DESIGN' ));
ENDSEC;

DATA;
#1 = EDGE_LOOP ( 'NONE', ( #171 ) ) ;
#2 = EDGE_LOOP ( 'NONE', ( #191 ) ) ;
#3 = CLOSED_SHELL ( 'NONE', ( #155, #41, #63 ) ) ;
#4 = EDGE_LOOP ( 'NONE', ( #176 ) ) ;
#5 = DIRECTION ( 'NONE',  ( -3.491481338843133355E-15, 1.224646799147353207E-16, -1.000000000000000000 ) ) ;
#6 = VERTEX_POINT ( 'NONE', #134 ) ;
#7 = CARTESIAN_POINT ( 'NONE',  ( 1.082359215041371340E-13, -3.796405077356795115E-15, 31.00000000000000000 ) ) ;
#8 = LOCAL_TIME ( 15, 34, 9.000000000000000000, #40 ) ;
#9 = PERSON_AND_ORGANIZATION ( #89, #166 ) ;
#10 = APPROVAL_DATE_TIME ( #198, #59 ) ;
#11 = COORDINATED_UNIVERSAL_TIME_OFFSET ( 1, 0, .AHEAD. ) ;
#12 = COORDINATED_UNIVERSAL_TIME_OFFSET ( 1, 0, .AHEAD. ) ;
#13 = MANIFOLD_SOLID_BREP ( 'Corps-Déplacer/Copier1[2]', #3 ) ;
#14 = FACE_OUTER_BOUND ( 'NONE', #109, .T. ) ;
#15 = AXIS2_PLACEMENT_3D ( 'NONE', #151, #147, #93 ) ;
#16 = ORIENTED_EDGE ( 'NONE', *, *, #115, .F. ) ;
#17 = DIRECTION ( 'NONE',  ( 3.491481338843133355E-15, -1.224646799147353207E-16, 1.000000000000000000 ) ) ;
#18 =( NAMED_UNIT ( * ) PLANE_ANGLE_UNIT ( ) SI_UNIT ( $, .RADIAN. ) );
#19 = CARTESIAN_POINT ( 'NONE',  ( 2.444036937190193601E-13, -8.572527594031472993E-15, 70.00000000000000000 ) ) ;
#20 = CC_DESIGN_APPROVAL ( #59, ( #184 ) ) ;
#21 = VERTEX_POINT ( 'NONE', #36 ) ;
#22 =( NAMED_UNIT ( * ) SI_UNIT ( $, .STERADIAN. ) SOLID_ANGLE_UNIT ( ) );
#23 = CC_DESIGN_DATE_AND_TIME_ASSIGNMENT ( #69, #29, ( #111 ) ) ;
#24 = PERSON_AND_ORGANIZATION_ROLE ( 'creator' ) ;
#25 = CONICAL_SURFACE ( 'NONE', #118, 2.550000000000000266, 0.7853981633974439491 ) ;
#26 = PERSON_AND_ORGANIZATION ( #89, #166 ) ;
#27 = CALENDAR_DATE ( 2021, 15, 10 ) ;
#28 = ADVANCED_BREP_SHAPE_REPRESENTATION ( '29118', ( #81, #13, #75 ), #153 ) ;
#29 = DATE_TIME_ROLE ( 'creation_date' ) ;
#30 = CC_DESIGN_SECURITY_CLASSIFICATION ( #184, ( #177 ) ) ;
#31 = DIRECTION ( 'NONE',  ( 4.275831445896958607E-31, 1.000000000000000000, 1.224646799147352961E-16 ) ) ;
#32 = CC_DESIGN_PERSON_AND_ORGANIZATION_ASSIGNMENT ( #188, #55, ( #142 ) ) ;
#33 = DIRECTION ( 'NONE',  ( 0.0000000000000000000, 1.000000000000000000, 0.0000000000000000000 ) ) ;
#34 = CARTESIAN_POINT ( 'NONE',  ( 4.130084662713174474E-15, 3.249999999999991562, 1.182903261365170433 ) ) ;
#35 = AXIS2_PLACEMENT_3D ( 'NONE', #67, #148, #76 ) ;
#36 = CARTESIAN_POINT ( 'NONE',  ( 1.082359215041371340E-13, 3.249999999999991562, 31.00000000000000000 ) ) ;
#37 = PERSON_AND_ORGANIZATION ( #89, #166 ) ;
#38 = COORDINATED_UNIVERSAL_TIME_OFFSET ( 1, 0, .AHEAD. ) ;
#39 = AXIS2_PLACEMENT_3D ( 'NONE', #197, #17, #120 ) ;
#40 = COORDINATED_UNIVERSAL_TIME_OFFSET ( 1, 0, .AHEAD. ) ;
#41 = ADVANCED_FACE ( 'NONE', ( #14, #58 ), #159, .T. ) ;
#42 = APPROVAL_DATE_TIME ( #170, #57 ) ;
#43 = FACE_OUTER_BOUND ( 'NONE', #4, .T. ) ;
#44 = LOCAL_TIME ( 15, 34, 9.000000000000000000, #85 ) ;
#45 = VERTEX_POINT ( 'NONE', #34 ) ;
#46 = PRODUCT_DEFINITION_SHAPE ( 'NONE', 'NONE',  #111 ) ;
#47 = CARTESIAN_POINT ( 'NONE',  ( 4.130084662713172896E-15, -1.448638692731820628E-16, 1.182903261365169989 ) ) ;
#48 = DIRECTION ( 'NONE',  ( -3.491481338843133355E-15, 1.224646799147353207E-16, -1.000000000000000000 ) ) ;
#49 = EDGE_CURVE ( 'NONE', #94, #94, #113, .T. ) ;
#50 = ADVANCED_FACE ( 'NONE', ( #43 ), #110, .F. ) ;
#51 = FACE_BOUND ( 'NONE', #1, .T. ) ;
#52 = PERSON_AND_ORGANIZATION_ROLE ( 'design_supplier' ) ;
#53 = DIRECTION ( 'NONE',  ( 0.0000000000000000000, 0.0000000000000000000, 1.000000000000000000 ) ) ;
#54 = AXIS2_PLACEMENT_3D ( 'NONE', #47, #116, #195 ) ;
#55 = PERSON_AND_ORGANIZATION_ROLE ( 'design_owner' ) ;
#56 = PERSON_AND_ORGANIZATION ( #89, #166 ) ;
#57 = APPROVAL ( #185, 'UNSPECIFIED' ) ;
#58 = FACE_OUTER_BOUND ( 'NONE', #90, .T. ) ;
#59 = APPROVAL ( #167, 'UNSPECIFIED' ) ;
#60 = ORIENTED_EDGE ( 'NONE', *, *, #100, .T. ) ;
#61 = CC_DESIGN_APPROVAL ( #57, ( #111 ) ) ;
#62 = DIRECTION ( 'NONE',  ( 0.0000000000000000000, 1.000000000000000000, 0.0000000000000000000 ) ) ;
#63 = ADVANCED_FACE ( 'NONE', ( #133 ), #95, .T. ) ;
#64 = CARTESIAN_POINT ( 'NONE',  ( 4.130084662713172896E-15, -1.448638692731820628E-16, 1.182903261365169989 ) ) ;
#65 = DIRECTION ( 'NONE',  ( -3.491481338843133355E-15, 1.224646799147353207E-16, -1.000000000000000000 ) ) ;
#66 = DIRECTION ( 'NONE',  ( -3.491481338843133355E-15, 1.224646799147353207E-16, -1.000000000000000000 ) ) ;
#67 = CARTESIAN_POINT ( 'NONE',  ( 2.419596567818291352E-13, -8.486802318091157127E-15, 69.29999999999999716 ) ) ;
#68 = APPROVAL_STATUS ( 'not_yet_approved' ) ;
#69 = DATE_AND_TIME ( #27, #44 ) ;
#70 = APPROVAL_DATE_TIME ( #203, #156 ) ;
#71 = APPROVAL_ROLE ( '' ) ;
#72 = CIRCLE ( 'NONE', #108, 2.550000000000000266 ) ;
#73 = CC_DESIGN_DATE_AND_TIME_ASSIGNMENT ( #102, #139, ( #184 ) ) ;
#74 = CARTESIAN_POINT ( 'NONE',  ( 2.444036937190193601E-13, -8.572527594031472993E-15, 70.00000000000000000 ) ) ;
#75 = AXIS2_PLACEMENT_3D ( 'NONE', #200, #53, #140 ) ;
#76 = DIRECTION ( 'NONE',  ( 0.0000000000000000000, 1.000000000000000000, 0.0000000000000000000 ) ) ;
#77 = EDGE_CURVE ( 'NONE', #6, #6, #127, .T. ) ;
#78 = CARTESIAN_POINT ( 'NONE',  ( 2.444036937190193601E-13, 2.549999999999991385, 70.00000000000000000 ) ) ;
#79 = APPLICATION_CONTEXT ( 'configuration controlled 3d designs of mechanical parts and assemblies' ) ;
#80 = PERSON_AND_ORGANIZATION ( #89, #166 ) ;
#81 = MANIFOLD_SOLID_BREP ( 'Corps-Déplacer/Copier1[1]', #84 ) ;
#82 = APPROVAL_ROLE ( '' ) ;
#83 = APPLICATION_PROTOCOL_DEFINITION ( 'international standard', 'config_control_design', 1994, #130 ) ;
#84 = CLOSED_SHELL ( 'NONE', ( #50, #92, #103, #137 ) ) ;
#85 = COORDINATED_UNIVERSAL_TIME_OFFSET ( 1, 0, .AHEAD. ) ;
#86 = ORIENTED_EDGE ( 'NONE', *, *, #100, .F. ) ;
#87 = LOCAL_TIME ( 15, 34, 9.000000000000000000, #38 ) ;
#88 = EDGE_LOOP ( 'NONE', ( #192 ) ) ;
#89 = PERSON ( 'UNSPECIFIED', 'UNSPECIFIED', 'UNSPECIFIED', ('UNSPECIFIED'), ('UNSPECIFIED'), ('UNSPECIFIED') ) ;
#90 = EDGE_LOOP ( 'NONE', ( #144 ) ) ;
#91 = AXIS2_PLACEMENT_3D ( 'NONE', #128, #173, #31 ) ;
#92 = ADVANCED_FACE ( 'NONE', ( #132, #146 ), #178, .T. ) ;
#93 = DIRECTION ( 'NONE',  ( 4.275831445896957731E-31, 1.000000000000000000, 1.224646799147352961E-16 ) ) ;
#94 = VERTEX_POINT ( 'NONE', #194 ) ;
#95 = PLANE ( 'NONE',  #39 ) ;
#96 = APPROVAL_PERSON_ORGANIZATION ( #9, #59, #82 ) ;
#97 = VERTEX_POINT ( 'NONE', #78 ) ;
#98 = DIRECTION ( 'NONE',  ( -4.275831445896958607E-31, -1.000000000000000000, -1.224646799147353207E-16 ) ) ;
#99 = CALENDAR_DATE ( 2021, 15, 10 ) ;
#100 = EDGE_CURVE ( 'NONE', #45, #45, #135, .T. ) ;
#101 = AXIS2_PLACEMENT_3D ( 'NONE', #64, #181, #131 ) ;
#102 = DATE_AND_TIME ( #154, #87 ) ;
#103 = ADVANCED_FACE ( 'NONE', ( #136, #51 ), #25, .T. ) ;
#104 = PERSON_AND_ORGANIZATION ( #89, #166 ) ;
#105 = APPROVAL_PERSON_ORGANIZATION ( #26, #57, #125 ) ;
#106 = ORIENTED_EDGE ( 'NONE', *, *, #77, .T. ) ;
#107 = EDGE_LOOP ( 'NONE', ( #16 ) ) ;
#108 = AXIS2_PLACEMENT_3D ( 'NONE', #74, #48, #62 ) ;
#109 = EDGE_LOOP ( 'NONE', ( #86 ) ) ;
#110 = PLANE ( 'NONE',  #196 ) ;
#111 = PRODUCT_DEFINITION ( 'UNKNOWN', '', #177, #202 ) ;
#112 = EDGE_LOOP ( 'NONE', ( #106 ) ) ;
#113 = CIRCLE ( 'NONE', #199, 3.249999999999995559 ) ;
#114 =( LENGTH_UNIT ( ) NAMED_UNIT ( * ) SI_UNIT ( .MILLI., .METRE. ) );
#115 = EDGE_CURVE ( 'NONE', #21, #21, #165, .T. ) ;
#116 = DIRECTION ( 'NONE',  ( -3.491481338843133355E-15, 1.224646799147353207E-16, -1.000000000000000000 ) ) ;
#117 = PLANE ( 'NONE',  #160 ) ;
#118 = AXIS2_PLACEMENT_3D ( 'NONE', #19, #66, #163 ) ;
#119 = CARTESIAN_POINT ( 'NONE',  ( 2.444036937190193601E-13, 1.912193722893855587E-32, 70.00000000000000000 ) ) ;
#120 = DIRECTION ( 'NONE',  ( -4.275831445896958607E-31, -1.000000000000000000, -1.224646799147353207E-16 ) ) ;
#121 = CC_DESIGN_PERSON_AND_ORGANIZATION_ASSIGNMENT ( #37, #201, ( #184 ) ) ;
#122 = SHAPE_DEFINITION_REPRESENTATION ( #46, #28 ) ;
#123 = CC_DESIGN_APPROVAL ( #156, ( #177 ) ) ;
#124 = MECHANICAL_CONTEXT ( 'NONE', #79, 'mechanical' ) ;
#125 = APPROVAL_ROLE ( '' ) ;
#126 = EDGE_LOOP ( 'NONE', ( #190 ) ) ;
#127 = CIRCLE ( 'NONE', #35, 3.250000000000000444 ) ;
#128 = CARTESIAN_POINT ( 'NONE',  ( 0.0000000000000000000, 0.0000000000000000000, 0.0000000000000000000 ) ) ;
#129 = PRODUCT_RELATED_PRODUCT_CATEGORY ( 'detail', '', ( #142 ) ) ;
#130 = APPLICATION_CONTEXT ( 'configuration controlled 3d designs of mechanical parts and assemblies' ) ;
#131 = DIRECTION ( 'NONE',  ( -4.740750632337823390E-31, -1.000000000000000000, -1.334402673828316544E-16 ) ) ;
#132 = FACE_OUTER_BOUND ( 'NONE', #2, .T. ) ;
#133 = FACE_OUTER_BOUND ( 'NONE', #107, .T. ) ;
#134 = CARTESIAN_POINT ( 'NONE',  ( 2.419596567818291352E-13, 3.249999999999991562, 69.29999999999999716 ) ) ;
#135 = CIRCLE ( 'NONE', #54, 3.249999999999991562 ) ;
#136 = FACE_OUTER_BOUND ( 'NONE', #88, .T. ) ;
#137 = ADVANCED_FACE ( 'NONE', ( #162 ), #117, .F. ) ;
#138 = CALENDAR_DATE ( 2021, 15, 10 ) ;
#139 = DATE_TIME_ROLE ( 'classification_date' ) ;
#140 = DIRECTION ( 'NONE',  ( 1.000000000000000000, 0.0000000000000000000, 0.0000000000000000000 ) ) ;
#141 = PERSON_AND_ORGANIZATION ( #89, #166 ) ;
#142 = PRODUCT ( '29118', '29118', '', ( #124 ) ) ;
#143 = CONICAL_SURFACE ( 'NONE', #101, 3.249999999999991562, 1.221730476396026610 ) ;
#144 = ORIENTED_EDGE ( 'NONE', *, *, #115, .T. ) ;
#145 = LOCAL_TIME ( 15, 34, 9.000000000000000000, #12 ) ;
#146 = FACE_OUTER_BOUND ( 'NONE', #112, .T. ) ;
#147 = DIRECTION ( 'NONE',  ( -3.491481338843133355E-15, 1.224646799147353207E-16, -1.000000000000000000 ) ) ;
#148 = DIRECTION ( 'NONE',  ( -3.491481338843133355E-15, 1.224646799147353207E-16, -1.000000000000000000 ) ) ;
#149 = CARTESIAN_POINT ( 'NONE',  ( 1.082359215041371340E-13, 2.437109646825509307E-32, 31.00000000000000000 ) ) ;
#150 = CC_DESIGN_PERSON_AND_ORGANIZATION_ASSIGNMENT ( #56, #52, ( #177 ) ) ;
#151 = CARTESIAN_POINT ( 'NONE',  ( 0.0000000000000000000, 0.0000000000000000000, 0.0000000000000000000 ) ) ;
#152 = EDGE_CURVE ( 'NONE', #97, #97, #72, .T. ) ;
#153 =( GEOMETRIC_REPRESENTATION_CONTEXT ( 3 ) GLOBAL_UNCERTAINTY_ASSIGNED_CONTEXT ( ( #187 ) ) GLOBAL_UNIT_ASSIGNED_CONTEXT ( ( #114, #18, #22 ) ) REPRESENTATION_CONTEXT ( 'NONE', 'WORKASPACE' ) );
#154 = CALENDAR_DATE ( 2021, 15, 10 ) ;
#155 = ADVANCED_FACE ( 'NONE', ( #179 ), #143, .T. ) ;
#156 = APPROVAL ( #68, 'UNSPECIFIED' ) ;
#157 = LOCAL_TIME ( 15, 34, 9.000000000000000000, #11 ) ;
#158 = DIRECTION ( 'NONE',  ( -3.491481338843133355E-15, 1.224646799147353207E-16, -1.000000000000000000 ) ) ;
#159 = CYLINDRICAL_SURFACE ( 'NONE', #91, 3.249999999999993339 ) ;
#160 = AXIS2_PLACEMENT_3D ( 'NONE', #119, #5, #164 ) ;
#161 = DIRECTION ( 'NONE',  ( 3.491481338843133355E-15, -1.224646799147353207E-16, 1.000000000000000000 ) ) ;
#162 = FACE_OUTER_BOUND ( 'NONE', #126, .T. ) ;
#163 = DIRECTION ( 'NONE',  ( 0.0000000000000000000, 1.000000000000000000, 0.0000000000000000000 ) ) ;
#164 = DIRECTION ( 'NONE',  ( 4.275831445896958607E-31, 1.000000000000000000, 1.224646799147353207E-16 ) ) ;
#165 = CIRCLE ( 'NONE', #169, 3.249999999999995559 ) ;
#166 = ORGANIZATION ( 'UNSPECIFIED', 'UNSPECIFIED', '' ) ;
#167 = APPROVAL_STATUS ( 'not_yet_approved' ) ;
#168 = CALENDAR_DATE ( 2021, 15, 10 ) ;
#169 = AXIS2_PLACEMENT_3D ( 'NONE', #7, #65, #33 ) ;
#170 = DATE_AND_TIME ( #99, #157 ) ;
#171 = ORIENTED_EDGE ( 'NONE', *, *, #152, .T. ) ;
#172 = CC_DESIGN_PERSON_AND_ORGANIZATION_ASSIGNMENT ( #104, #186, ( #177 ) ) ;
#173 = DIRECTION ( 'NONE',  ( -3.491481338843133355E-15, 1.224646799147353207E-16, -1.000000000000000000 ) ) ;
#174 = CARTESIAN_POINT ( 'NONE',  ( 1.082359215041371340E-13, -3.796405077356795115E-15, 31.00000000000000000 ) ) ;
#175 = EDGE_LOOP ( 'NONE', ( #60 ) ) ;
#176 = ORIENTED_EDGE ( 'NONE', *, *, #49, .T. ) ;
#177 = PRODUCT_DEFINITION_FORMATION_WITH_SPECIFIED_SOURCE ( 'ANY', '', #142, .NOT_KNOWN. ) ;
#178 = CYLINDRICAL_SURFACE ( 'NONE', #15, 3.249999999999997780 ) ;
#179 = FACE_OUTER_BOUND ( 'NONE', #175, .T. ) ;
#180 = APPROVAL_PERSON_ORGANIZATION ( #80, #156, #71 ) ;
#181 = DIRECTION ( 'NONE',  ( 3.491481338843133355E-15, -1.224646799147353207E-16, 1.000000000000000000 ) ) ;
#182 = SECURITY_CLASSIFICATION_LEVEL ( 'unclassified' ) ;
#183 = APPLICATION_PROTOCOL_DEFINITION ( 'international standard', 'config_control_design', 1994, #79 ) ;
#184 = SECURITY_CLASSIFICATION ( '', '', #182 ) ;
#185 = APPROVAL_STATUS ( 'not_yet_approved' ) ;
#186 = PERSON_AND_ORGANIZATION_ROLE ( 'creator' ) ;
#187 = UNCERTAINTY_MEASURE_WITH_UNIT (LENGTH_MEASURE( 1.000000000000000082E-05 ), #114, 'distance_accuracy_value', 'NONE');
#188 = PERSON_AND_ORGANIZATION ( #89, #166 ) ;
#189 = CC_DESIGN_PERSON_AND_ORGANIZATION_ASSIGNMENT ( #141, #24, ( #111 ) ) ;
#190 = ORIENTED_EDGE ( 'NONE', *, *, #152, .F. ) ;
#191 = ORIENTED_EDGE ( 'NONE', *, *, #49, .F. ) ;
#192 = ORIENTED_EDGE ( 'NONE', *, *, #77, .F. ) ;
#193 = DIRECTION ( 'NONE',  ( 0.0000000000000000000, 1.000000000000000000, 0.0000000000000000000 ) ) ;
#194 = CARTESIAN_POINT ( 'NONE',  ( 1.082359215041371340E-13, 3.249999999999991562, 31.00000000000000000 ) ) ;
#195 = DIRECTION ( 'NONE',  ( 4.740750632337823390E-31, 1.000000000000000000, 1.334402673828316544E-16 ) ) ;
#196 = AXIS2_PLACEMENT_3D ( 'NONE', #149, #161, #98 ) ;
#197 = CARTESIAN_POINT ( 'NONE',  ( 1.082359215041371340E-13, 2.437109646825509307E-32, 31.00000000000000000 ) ) ;
#198 = DATE_AND_TIME ( #138, #8 ) ;
#199 = AXIS2_PLACEMENT_3D ( 'NONE', #174, #158, #193 ) ;
#200 = CARTESIAN_POINT ( 'NONE',  ( 0.0000000000000000000, 0.0000000000000000000, 0.0000000000000000000 ) ) ;
#201 = PERSON_AND_ORGANIZATION_ROLE ( 'classification_officer' ) ;
#202 = DESIGN_CONTEXT ( 'detailed design', #130, 'design' ) ;
#203 = DATE_AND_TIME ( #168, #145 ) ;
ENDSEC;
END-ISO-10303-21;
