ISO-10303-21;
HEADER;
FILE_DESCRIPTION (( 'STEP AP203' ),
    '1' );
FILE_NAME ('29115.step',
    '2021-10-15T13:34:08',
    ( '' ),
    ( '' ),
    'SwSTEP 2.0',
    'SolidWorks 2019',
    '' );
FILE_SCHEMA (( 'CONFIG_CONTROL_DESIGN' ));
ENDSEC;

DATA;
#1 = VERTEX_POINT ( 'NONE', #72 ) ;
#2 = CARTESIAN_POINT ( 'NONE',  ( 0.0000000000000000000, 0.0000000000000000000, 0.0000000000000000000 ) ) ;
#3 = DIRECTION ( 'NONE',  ( 0.0000000000000000000, 1.000000000000000000, 0.0000000000000000000 ) ) ;
#4 = DIRECTION ( 'NONE',  ( -3.491481338843133355E-15, 1.224646799147353207E-16, -1.000000000000000000 ) ) ;
#5 = AXIS2_PLACEMENT_3D ( 'NONE', #2, #4, #50 ) ;
#6 = APPROVAL_ROLE ( '' ) ;
#7 = CC_DESIGN_PERSON_AND_ORGANIZATION_ASSIGNMENT ( #195, #96, ( #16 ) ) ;
#8 = DIRECTION ( 'NONE',  ( 0.0000000000000000000, 0.0000000000000000000, 1.000000000000000000 ) ) ;
#9 = CALENDAR_DATE ( 2021, 15, 10 ) ;
#10 = PERSON ( 'UNSPECIFIED', 'UNSPECIFIED', 'UNSPECIFIED', ('UNSPECIFIED'), ('UNSPECIFIED'), ('UNSPECIFIED') ) ;
#11 = FACE_BOUND ( 'NONE', #46, .T. ) ;
#12 = ORIENTED_EDGE ( 'NONE', *, *, #53, .F. ) ;
#13 = CIRCLE ( 'NONE', #203, 2.749999999999996003 ) ;
#14 = APPROVAL ( #126, 'UNSPECIFIED' ) ;
#15 = ORIENTED_EDGE ( 'NONE', *, *, #53, .T. ) ;
#16 = PRODUCT ( '29115', '29115', '', ( #178 ) ) ;
#17 = EDGE_LOOP ( 'NONE', ( #12 ) ) ;
#18 = VERTEX_POINT ( 'NONE', #160 ) ;
#19 = AXIS2_PLACEMENT_3D ( 'NONE', #85, #140, #200 ) ;
#20 =( NAMED_UNIT ( * ) PLANE_ANGLE_UNIT ( ) SI_UNIT ( $, .RADIAN. ) );
#21 = FACE_OUTER_BOUND ( 'NONE', #199, .T. ) ;
#22 = EDGE_CURVE ( 'NONE', #175, #175, #193, .T. ) ;
#23 = AXIS2_PLACEMENT_3D ( 'NONE', #32, #69, #121 ) ;
#24 = CARTESIAN_POINT ( 'NONE',  ( 9.776147748760773395E-14, -3.429011037612589276E-15, 28.00000000000000000 ) ) ;
#25 = COORDINATED_UNIVERSAL_TIME_OFFSET ( 1, 0, .AHEAD. ) ;
#26 = DATE_AND_TIME ( #59, #58 ) ;
#27 = APPLICATION_PROTOCOL_DEFINITION ( 'international standard', 'config_control_design', 1994, #64 ) ;
#28 = APPROVAL_STATUS ( 'not_yet_approved' ) ;
#29 = ADVANCED_FACE ( 'NONE', ( #143, #11 ), #100, .T. ) ;
#30 = CIRCLE ( 'NONE', #76, 2.250000000000000888 ) ;
#31 = ORIENTED_EDGE ( 'NONE', *, *, #49, .T. ) ;
#32 = CARTESIAN_POINT ( 'NONE',  ( 2.304377683636468267E-13, 1.687229755494578040E-32, 66.00000000000000000 ) ) ;
#33 = ADVANCED_BREP_SHAPE_REPRESENTATION ( '29115', ( #66, #70, #91 ), #35 ) ;
#34 = AXIS2_PLACEMENT_3D ( 'NONE', #77, #134, #102 ) ;
#35 =( GEOMETRIC_REPRESENTATION_CONTEXT ( 3 ) GLOBAL_UNCERTAINTY_ASSIGNED_CONTEXT ( ( #202 ) ) GLOBAL_UNIT_ASSIGNED_CONTEXT ( ( #157, #20, #90 ) ) REPRESENTATION_CONTEXT ( 'NONE', 'WORKASPACE' ) );
#36 = DIRECTION ( 'NONE',  ( 5.602705292762883542E-31, 1.000000000000000000, 1.577021341797101751E-16 ) ) ;
#37 = CARTESIAN_POINT ( 'NONE',  ( 2.304377683636468267E-13, -8.082668874372532400E-15, 66.00000000000000000 ) ) ;
#38 = VERTEX_POINT ( 'NONE', #92 ) ;
#39 = APPROVAL_DATE_TIME ( #181, #14 ) ;
#40 = APPROVAL_ROLE ( '' ) ;
#41 = ORGANIZATION ( 'UNSPECIFIED', 'UNSPECIFIED', '' ) ;
#42 = CALENDAR_DATE ( 2021, 15, 10 ) ;
#43 = PERSON_AND_ORGANIZATION_ROLE ( 'creator' ) ;
#44 = CC_DESIGN_DATE_AND_TIME_ASSIGNMENT ( #194, #83, ( #167 ) ) ;
#45 = APPROVAL_PERSON_ORGANIZATION ( #94, #14, #6 ) ;
#46 = EDGE_LOOP ( 'NONE', ( #15 ) ) ;
#47 = ADVANCED_FACE ( 'NONE', ( #201 ), #67, .F. ) ;
#48 = EDGE_LOOP ( 'NONE', ( #31 ) ) ;
#49 = EDGE_CURVE ( 'NONE', #133, #133, #197, .T. ) ;
#50 = DIRECTION ( 'NONE',  ( 4.275831445896958607E-31, 1.000000000000000000, 1.224646799147353207E-16 ) ) ;
#51 = CARTESIAN_POINT ( 'NONE',  ( 3.494687022295761287E-15, -1.225771201542309231E-16, 1.000918144232066709 ) ) ;
#52 = AXIS2_PLACEMENT_3D ( 'NONE', #190, #104, #3 ) ;
#53 = EDGE_CURVE ( 'NONE', #18, #18, #30, .T. ) ;
#54 = DIRECTION ( 'NONE',  ( 3.491481338843133355E-15, -1.224646799147353207E-16, 1.000000000000000000 ) ) ;
#55 = CARTESIAN_POINT ( 'NONE',  ( 9.776147748760773395E-14, 2.749999999999992450, 28.00000000000000000 ) ) ;
#56 = DIRECTION ( 'NONE',  ( -5.602705292762883542E-31, -1.000000000000000000, -1.577021341797101751E-16 ) ) ;
#57 = AXIS2_PLACEMENT_3D ( 'NONE', #51, #192, #36 ) ;
#58 = LOCAL_TIME ( 15, 34, 8.000000000000000000, #82 ) ;
#59 = CALENDAR_DATE ( 2021, 15, 10 ) ;
#60 = COORDINATED_UNIVERSAL_TIME_OFFSET ( 1, 0, .AHEAD. ) ;
#61 = PERSON_AND_ORGANIZATION_ROLE ( 'design_supplier' ) ;
#62 = AXIS2_PLACEMENT_3D ( 'NONE', #99, #169, #86 ) ;
#63 = SECURITY_CLASSIFICATION_LEVEL ( 'unclassified' ) ;
#64 = APPLICATION_CONTEXT ( 'configuration controlled 3d designs of mechanical parts and assemblies' ) ;
#65 = ORIENTED_EDGE ( 'NONE', *, *, #49, .F. ) ;
#66 = MANIFOLD_SOLID_BREP ( 'Corps-Déplacer/Copier1[1]', #183 ) ;
#67 = PLANE ( 'NONE',  #23 ) ;
#68 = DESIGN_CONTEXT ( 'detailed design', #89, 'design' ) ;
#69 = DIRECTION ( 'NONE',  ( -3.491481338843133355E-15, 1.224646799147353207E-16, -1.000000000000000000 ) ) ;
#70 = MANIFOLD_SOLID_BREP ( 'Corps-Déplacer/Copier1[2]', #116 ) ;
#71 = LOCAL_TIME ( 15, 34, 8.000000000000000000, #110 ) ;
#72 = CARTESIAN_POINT ( 'NONE',  ( 9.776147748760773395E-14, 2.749999999999992450, 28.00000000000000000 ) ) ;
#73 = CARTESIAN_POINT ( 'NONE',  ( 0.0000000000000000000, 0.0000000000000000000, 0.0000000000000000000 ) ) ;
#74 = APPROVAL ( #28, 'UNSPECIFIED' ) ;
#75 = DIRECTION ( 'NONE',  ( 0.0000000000000000000, 1.000000000000000000, 0.0000000000000000000 ) ) ;
#76 = AXIS2_PLACEMENT_3D ( 'NONE', #37, #146, #75 ) ;
#77 = CARTESIAN_POINT ( 'NONE',  ( 9.776147748760773395E-14, 2.062169701160046274E-32, 28.00000000000000000 ) ) ;
#78 = FACE_OUTER_BOUND ( 'NONE', #154, .T. ) ;
#79 = PRODUCT_RELATED_PRODUCT_CATEGORY ( 'detail', '', ( #16 ) ) ;
#80 = APPROVAL_ROLE ( '' ) ;
#81 = LOCAL_TIME ( 15, 34, 8.000000000000000000, #60 ) ;
#82 = COORDINATED_UNIVERSAL_TIME_OFFSET ( 1, 0, .AHEAD. ) ;
#83 = DATE_TIME_ROLE ( 'classification_date' ) ;
#84 = PERSON_AND_ORGANIZATION ( #10, #41 ) ;
#85 = CARTESIAN_POINT ( 'NONE',  ( 2.304377683636468267E-13, -8.082668874372532400E-15, 66.00000000000000000 ) ) ;
#86 = DIRECTION ( 'NONE',  ( 0.0000000000000000000, 1.000000000000000000, 0.0000000000000000000 ) ) ;
#87 = FACE_OUTER_BOUND ( 'NONE', #48, .T. ) ;
#88 = LOCAL_TIME ( 15, 34, 8.000000000000000000, #25 ) ;
#89 = APPLICATION_CONTEXT ( 'configuration controlled 3d designs of mechanical parts and assemblies' ) ;
#90 =( NAMED_UNIT ( * ) SI_UNIT ( $, .STERADIAN. ) SOLID_ANGLE_UNIT ( ) );
#91 = AXIS2_PLACEMENT_3D ( 'NONE', #123, #8, #108 ) ;
#92 = CARTESIAN_POINT ( 'NONE',  ( 3.494687022295762864E-15, 2.749999999999992450, 1.000918144232067153 ) ) ;
#93 = SHAPE_DEFINITION_REPRESENTATION ( #137, #33 ) ;
#94 = PERSON_AND_ORGANIZATION ( #10, #41 ) ;
#95 = CC_DESIGN_DATE_AND_TIME_ASSIGNMENT ( #166, #147, ( #173 ) ) ;
#96 = PERSON_AND_ORGANIZATION_ROLE ( 'design_owner' ) ;
#97 = PERSON_AND_ORGANIZATION ( #10, #41 ) ;
#98 = ORIENTED_EDGE ( 'NONE', *, *, #22, .T. ) ;
#99 = CARTESIAN_POINT ( 'NONE',  ( 2.286920276942252663E-13, -8.021436534415164826E-15, 65.50000000000000000 ) ) ;
#100 = CONICAL_SURFACE ( 'NONE', #19, 2.250000000000000888, 0.7853981633974473908 ) ;
#101 = ADVANCED_FACE ( 'NONE', ( #21 ), #159, .T. ) ;
#102 = DIRECTION ( 'NONE',  ( -4.275831445896958607E-31, -1.000000000000000000, -1.224646799147353207E-16 ) ) ;
#103 = CC_DESIGN_APPROVAL ( #119, ( #167 ) ) ;
#104 = DIRECTION ( 'NONE',  ( -3.491481338843133355E-15, 1.224646799147353207E-16, -1.000000000000000000 ) ) ;
#105 = FACE_OUTER_BOUND ( 'NONE', #182, .T. ) ;
#106 = AXIS2_PLACEMENT_3D ( 'NONE', #144, #54, #56 ) ;
#107 = DATE_AND_TIME ( #9, #81 ) ;
#108 = DIRECTION ( 'NONE',  ( 1.000000000000000000, 0.0000000000000000000, 0.0000000000000000000 ) ) ;
#109 = APPROVAL_DATE_TIME ( #26, #74 ) ;
#110 = COORDINATED_UNIVERSAL_TIME_OFFSET ( 1, 0, .AHEAD. ) ;
#111 = APPROVAL_PERSON_ORGANIZATION ( #150, #119, #80 ) ;
#112 = EDGE_LOOP ( 'NONE', ( #185 ) ) ;
#113 = ORIENTED_EDGE ( 'NONE', *, *, #187, .F. ) ;
#114 = ORIENTED_EDGE ( 'NONE', *, *, #187, .T. ) ;
#115 = DIRECTION ( 'NONE',  ( -3.491481338843133355E-15, 1.224646799147353207E-16, -1.000000000000000000 ) ) ;
#116 = CLOSED_SHELL ( 'NONE', ( #127, #132, #101 ) ) ;
#117 = DIRECTION ( 'NONE',  ( 3.491481338843133355E-15, -1.224646799147353207E-16, 1.000000000000000000 ) ) ;
#118 = PLANE ( 'NONE',  #34 ) ;
#119 = APPROVAL ( #135, 'UNSPECIFIED' ) ;
#120 = DIRECTION ( 'NONE',  ( -4.275831445896958607E-31, -1.000000000000000000, -1.224646799147353207E-16 ) ) ;
#121 = DIRECTION ( 'NONE',  ( 4.275831445896958607E-31, 1.000000000000000000, 1.224646799147353207E-16 ) ) ;
#122 = APPROVAL_PERSON_ORGANIZATION ( #84, #74, #40 ) ;
#123 = CARTESIAN_POINT ( 'NONE',  ( 0.0000000000000000000, 0.0000000000000000000, 0.0000000000000000000 ) ) ;
#124 = PERSON_AND_ORGANIZATION ( #10, #41 ) ;
#125 = CC_DESIGN_PERSON_AND_ORGANIZATION_ASSIGNMENT ( #97, #61, ( #177 ) ) ;
#126 = APPROVAL_STATUS ( 'not_yet_approved' ) ;
#127 = ADVANCED_FACE ( 'NONE', ( #78 ), #138, .T. ) ;
#128 = EDGE_LOOP ( 'NONE', ( #142 ) ) ;
#129 = LOCAL_TIME ( 15, 34, 8.000000000000000000, #196 ) ;
#130 = DIRECTION ( 'NONE',  ( 4.275831445896958607E-31, 1.000000000000000000, 1.224646799147353207E-16 ) ) ;
#131 = DIRECTION ( 'NONE',  ( 0.0000000000000000000, 1.000000000000000000, 0.0000000000000000000 ) ) ;
#132 = ADVANCED_FACE ( 'NONE', ( #145, #87 ), #191, .T. ) ;
#133 = VERTEX_POINT ( 'NONE', #55 ) ;
#134 = DIRECTION ( 'NONE',  ( 3.491481338843133355E-15, -1.224646799147353207E-16, 1.000000000000000000 ) ) ;
#135 = APPROVAL_STATUS ( 'not_yet_approved' ) ;
#136 = PERSON_AND_ORGANIZATION_ROLE ( 'creator' ) ;
#137 = PRODUCT_DEFINITION_SHAPE ( 'NONE', 'NONE',  #173 ) ;
#138 = CONICAL_SURFACE ( 'NONE', #106, 2.749999999999992450, 1.221730476396026610 ) ;
#139 = EDGE_LOOP ( 'NONE', ( #168 ) ) ;
#140 = DIRECTION ( 'NONE',  ( -3.491481338843133355E-15, 1.224646799147353207E-16, -1.000000000000000000 ) ) ;
#141 = CC_DESIGN_PERSON_AND_ORGANIZATION_ASSIGNMENT ( #124, #148, ( #167 ) ) ;
#142 = ORIENTED_EDGE ( 'NONE', *, *, #22, .F. ) ;
#143 = FACE_OUTER_BOUND ( 'NONE', #128, .T. ) ;
#144 = CARTESIAN_POINT ( 'NONE',  ( 3.494687022295761287E-15, -1.225771201542309231E-16, 1.000918144232066709 ) ) ;
#145 = FACE_OUTER_BOUND ( 'NONE', #152, .T. ) ;
#146 = DIRECTION ( 'NONE',  ( -3.491481338843133355E-15, 1.224646799147353207E-16, -1.000000000000000000 ) ) ;
#147 = DATE_TIME_ROLE ( 'creation_date' ) ;
#148 = PERSON_AND_ORGANIZATION_ROLE ( 'classification_officer' ) ;
#149 = PERSON_AND_ORGANIZATION ( #10, #41 ) ;
#150 = PERSON_AND_ORGANIZATION ( #10, #41 ) ;
#151 = CC_DESIGN_APPROVAL ( #14, ( #173 ) ) ;
#152 = EDGE_LOOP ( 'NONE', ( #113 ) ) ;
#153 = CIRCLE ( 'NONE', #57, 2.749999999999992450 ) ;
#154 = EDGE_LOOP ( 'NONE', ( #114 ) ) ;
#155 = CARTESIAN_POINT ( 'NONE',  ( 2.286920276942252663E-13, 2.749999999999992450, 65.50000000000000000 ) ) ;
#156 = CC_DESIGN_APPROVAL ( #74, ( #177 ) ) ;
#157 =( LENGTH_UNIT ( ) NAMED_UNIT ( * ) SI_UNIT ( .MILLI., .METRE. ) );
#158 = CC_DESIGN_PERSON_AND_ORGANIZATION_ASSIGNMENT ( #161, #43, ( #173 ) ) ;
#159 = PLANE ( 'NONE',  #163 ) ;
#160 = CARTESIAN_POINT ( 'NONE',  ( 2.304377683636468267E-13, 2.249999999999992450, 66.00000000000000000 ) ) ;
#161 = PERSON_AND_ORGANIZATION ( #10, #41 ) ;
#162 = APPLICATION_PROTOCOL_DEFINITION ( 'international standard', 'config_control_design', 1994, #89 ) ;
#163 = AXIS2_PLACEMENT_3D ( 'NONE', #176, #117, #120 ) ;
#164 = CALENDAR_DATE ( 2021, 15, 10 ) ;
#165 = ADVANCED_FACE ( 'NONE', ( #174 ), #118, .F. ) ;
#166 = DATE_AND_TIME ( #42, #71 ) ;
#167 = SECURITY_CLASSIFICATION ( '', '', #63 ) ;
#168 = ORIENTED_EDGE ( 'NONE', *, *, #184, .F. ) ;
#169 = DIRECTION ( 'NONE',  ( -3.491481338843133355E-15, 1.224646799147353207E-16, -1.000000000000000000 ) ) ;
#170 = ADVANCED_FACE ( 'NONE', ( #188, #105 ), #186, .T. ) ;
#171 = DIRECTION ( 'NONE',  ( -3.491481338843133355E-15, 1.224646799147353207E-16, -1.000000000000000000 ) ) ;
#172 = CC_DESIGN_SECURITY_CLASSIFICATION ( #167, ( #177 ) ) ;
#173 = PRODUCT_DEFINITION ( 'UNKNOWN', '', #177, #68 ) ;
#174 = FACE_OUTER_BOUND ( 'NONE', #112, .T. ) ;
#175 = VERTEX_POINT ( 'NONE', #155 ) ;
#176 = CARTESIAN_POINT ( 'NONE',  ( 9.776147748760773395E-14, 2.062169701160046274E-32, 28.00000000000000000 ) ) ;
#177 = PRODUCT_DEFINITION_FORMATION_WITH_SPECIFIED_SOURCE ( 'ANY', '', #16, .NOT_KNOWN. ) ;
#178 = MECHANICAL_CONTEXT ( 'NONE', #64, 'mechanical' ) ;
#179 = CALENDAR_DATE ( 2021, 15, 10 ) ;
#180 = CC_DESIGN_PERSON_AND_ORGANIZATION_ASSIGNMENT ( #149, #136, ( #177 ) ) ;
#181 = DATE_AND_TIME ( #164, #129 ) ;
#182 = EDGE_LOOP ( 'NONE', ( #98 ) ) ;
#183 = CLOSED_SHELL ( 'NONE', ( #165, #170, #29, #47 ) ) ;
#184 = EDGE_CURVE ( 'NONE', #1, #1, #13, .T. ) ;
#185 = ORIENTED_EDGE ( 'NONE', *, *, #184, .T. ) ;
#186 = CYLINDRICAL_SURFACE ( 'NONE', #189, 2.749999999999998224 ) ;
#187 = EDGE_CURVE ( 'NONE', #38, #38, #153, .T. ) ;
#188 = FACE_OUTER_BOUND ( 'NONE', #139, .T. ) ;
#189 = AXIS2_PLACEMENT_3D ( 'NONE', #73, #115, #130 ) ;
#190 = CARTESIAN_POINT ( 'NONE',  ( 9.776147748760773395E-14, -3.429011037612589276E-15, 28.00000000000000000 ) ) ;
#191 = CYLINDRICAL_SURFACE ( 'NONE', #5, 2.749999999999994227 ) ;
#192 = DIRECTION ( 'NONE',  ( -3.491481338843133355E-15, 1.224646799147353207E-16, -1.000000000000000000 ) ) ;
#193 = CIRCLE ( 'NONE', #62, 2.750000000000000444 ) ;
#194 = DATE_AND_TIME ( #179, #88 ) ;
#195 = PERSON_AND_ORGANIZATION ( #10, #41 ) ;
#196 = COORDINATED_UNIVERSAL_TIME_OFFSET ( 1, 0, .AHEAD. ) ;
#197 = CIRCLE ( 'NONE', #52, 2.749999999999996003 ) ;
#198 = APPROVAL_DATE_TIME ( #107, #119 ) ;
#199 = EDGE_LOOP ( 'NONE', ( #65 ) ) ;
#200 = DIRECTION ( 'NONE',  ( 0.0000000000000000000, 1.000000000000000000, 0.0000000000000000000 ) ) ;
#201 = FACE_OUTER_BOUND ( 'NONE', #17, .T. ) ;
#202 = UNCERTAINTY_MEASURE_WITH_UNIT (LENGTH_MEASURE( 1.000000000000000082E-05 ), #157, 'distance_accuracy_value', 'NONE');
#203 = AXIS2_PLACEMENT_3D ( 'NONE', #24, #171, #131 ) ;
ENDSEC;
END-ISO-10303-21;
