ISO-10303-21;
HEADER;
FILE_DESCRIPTION (( 'STEP AP203' ),
    '1' );
FILE_NAME ('29114.step',
    '2021-10-15T13:34:08',
    ( '' ),
    ( '' ),
    'SwSTEP 2.0',
    'SolidWorks 2019',
    '' );
FILE_SCHEMA (( 'CONFIG_CONTROL_DESIGN' ));
ENDSEC;

DATA;
#1 = PRODUCT_DEFINITION ( 'UNKNOWN', '', #80, #66 ) ;
#2 = ORIENTED_EDGE ( 'NONE', *, *, #86, .T. ) ;
#3 = AXIS2_PLACEMENT_3D ( 'NONE', #59, #8, #79 ) ;
#4 = ORIENTED_EDGE ( 'NONE', *, *, #5, .F. ) ;
#5 = EDGE_CURVE ( 'NONE', #177, #177, #119, .T. ) ;
#6 = DIRECTION ( 'NONE',  ( 4.275831445896958607E-31, 1.000000000000000000, 1.224646799147353207E-16 ) ) ;
#7 = FACE_OUTER_BOUND ( 'NONE', #173, .T. ) ;
#8 = DIRECTION ( 'NONE',  ( -3.491481338843133355E-15, 1.224646799147353207E-16, -1.000000000000000000 ) ) ;
#9 = CARTESIAN_POINT ( 'NONE',  ( 9.077851480992146724E-14, 2.499999999999992895, 26.00000000000000000 ) ) ;
#10 =( NAMED_UNIT ( * ) SI_UNIT ( $, .STERADIAN. ) SOLID_ANGLE_UNIT ( ) );
#11 = APPROVAL_DATE_TIME ( #31, #157 ) ;
#12 = ADVANCED_FACE ( 'NONE', ( #36 ), #102, .F. ) ;
#13 = DATE_AND_TIME ( #153, #197 ) ;
#14 = APPROVAL_DATE_TIME ( #65, #55 ) ;
#15 = APPROVAL_ROLE ( '' ) ;
#16 = CC_DESIGN_DATE_AND_TIME_ASSIGNMENT ( #85, #109, ( #77 ) ) ;
#17 = CARTESIAN_POINT ( 'NONE',  ( 2.164718430082742680E-13, -7.592810154713590230E-15, 62.00000000000000000 ) ) ;
#18 = EDGE_LOOP ( 'NONE', ( #174 ) ) ;
#19 = EDGE_LOOP ( 'NONE', ( #38 ) ) ;
#20 = LOCAL_TIME ( 15, 34, 8.000000000000000000, #130 ) ;
#21 = ORIENTED_EDGE ( 'NONE', *, *, #91, .F. ) ;
#22 = PLANE ( 'NONE',  #184 ) ;
#23 = DIRECTION ( 'NONE',  ( 4.622231866529379185E-31, 1.000000000000000000, 1.301042606982609019E-16 ) ) ;
#24 = CARTESIAN_POINT ( 'NONE',  ( 3.176988202087056468E-15, 2.499999999999992895, 0.9099255856655155128 ) ) ;
#25 = DIRECTION ( 'NONE',  ( -3.491481338843133355E-15, 1.224646799147353207E-16, -1.000000000000000000 ) ) ;
#26 = CC_DESIGN_APPROVAL ( #157, ( #1 ) ) ;
#27 = CIRCLE ( 'NONE', #144, 2.499999999999992895 ) ;
#28 = FACE_OUTER_BOUND ( 'NONE', #39, .T. ) ;
#29 = APPROVAL_ROLE ( '' ) ;
#30 = PERSON_AND_ORGANIZATION ( #84, #111 ) ;
#31 = DATE_AND_TIME ( #185, #20 ) ;
#32 = CLOSED_SHELL ( 'NONE', ( #74, #128, #124 ) ) ;
#33 = SECURITY_CLASSIFICATION_LEVEL ( 'unclassified' ) ;
#34 = PRODUCT ( '29114', '29114', '', ( #198 ) ) ;
#35 = CC_DESIGN_PERSON_AND_ORGANIZATION_ASSIGNMENT ( #50, #63, ( #1 ) ) ;
#36 = FACE_OUTER_BOUND ( 'NONE', #88, .T. ) ;
#37 = AXIS2_PLACEMENT_3D ( 'NONE', #104, #43, #137 ) ;
#38 = ORIENTED_EDGE ( 'NONE', *, *, #86, .F. ) ;
#39 = EDGE_LOOP ( 'NONE', ( #115 ) ) ;
#40 = DIRECTION ( 'NONE',  ( -3.491481338843133355E-15, 1.224646799147353207E-16, -1.000000000000000000 ) ) ;
#41 = CARTESIAN_POINT ( 'NONE',  ( 2.164718430082742680E-13, 1.999999999999992673, 62.00000000000000000 ) ) ;
#42 = VERTEX_POINT ( 'NONE', #178 ) ;
#43 = DIRECTION ( 'NONE',  ( 3.491481338843133355E-15, -1.224646799147353207E-16, 1.000000000000000000 ) ) ;
#44 = CARTESIAN_POINT ( 'NONE',  ( 3.176988202087055285E-15, -1.114337455947554026E-16, 0.9099255856655151797 ) ) ;
#45 = LOCAL_TIME ( 15, 34, 8.000000000000000000, #98 ) ;
#46 = DATE_AND_TIME ( #113, #134 ) ;
#47 = APPROVAL_STATUS ( 'not_yet_approved' ) ;
#48 = SHAPE_DEFINITION_REPRESENTATION ( #186, #56 ) ;
#49 = PERSON_AND_ORGANIZATION ( #84, #111 ) ;
#50 = PERSON_AND_ORGANIZATION ( #84, #111 ) ;
#51 = ADVANCED_FACE ( 'NONE', ( #87, #158 ), #175, .T. ) ;
#52 = EDGE_LOOP ( 'NONE', ( #21 ) ) ;
#53 = AXIS2_PLACEMENT_3D ( 'NONE', #17, #132, #114 ) ;
#54 = DIRECTION ( 'NONE',  ( -4.275831445896958607E-31, -1.000000000000000000, -1.224646799147353207E-16 ) ) ;
#55 = APPROVAL ( #169, 'UNSPECIFIED' ) ;
#56 = ADVANCED_BREP_SHAPE_REPRESENTATION ( '29114', ( #203, #71, #118 ), #89 ) ;
#57 = AXIS2_PLACEMENT_3D ( 'NONE', #147, #122, #191 ) ;
#58 = CC_DESIGN_PERSON_AND_ORGANIZATION_ASSIGNMENT ( #139, #196, ( #77 ) ) ;
#59 = CARTESIAN_POINT ( 'NONE',  ( 0.0000000000000000000, 0.0000000000000000000, 0.0000000000000000000 ) ) ;
#60 = DIRECTION ( 'NONE',  ( 4.275831445896958607E-31, 1.000000000000000000, 1.224646799147353207E-16 ) ) ;
#61 = DIRECTION ( 'NONE',  ( -3.491481338843133355E-15, 1.224646799147353207E-16, -1.000000000000000000 ) ) ;
#62 = CARTESIAN_POINT ( 'NONE',  ( 2.147261023388527077E-13, -7.531577814756222656E-15, 61.50000000000000000 ) ) ;
#63 = PERSON_AND_ORGANIZATION_ROLE ( 'creator' ) ;
#64 = APPLICATION_CONTEXT ( 'configuration controlled 3d designs of mechanical parts and assemblies' ) ;
#65 = DATE_AND_TIME ( #166, #45 ) ;
#66 = DESIGN_CONTEXT ( 'detailed design', #64, 'design' ) ;
#67 = COORDINATED_UNIVERSAL_TIME_OFFSET ( 1, 0, .AHEAD. ) ;
#68 = CARTESIAN_POINT ( 'NONE',  ( 0.0000000000000000000, 0.0000000000000000000, 0.0000000000000000000 ) ) ;
#69 = CLOSED_SHELL ( 'NONE', ( #12, #117, #51, #103 ) ) ;
#70 = ORIENTED_EDGE ( 'NONE', *, *, #112, .T. ) ;
#71 = MANIFOLD_SOLID_BREP ( 'Corps-Déplacer/Copier1[2]', #32 ) ;
#72 = ORIENTED_EDGE ( 'NONE', *, *, #5, .T. ) ;
#73 = CIRCLE ( 'NONE', #202, 2.500000000000000000 ) ;
#74 = ADVANCED_FACE ( 'NONE', ( #28 ), #95, .T. ) ;
#75 = CC_DESIGN_PERSON_AND_ORGANIZATION_ASSIGNMENT ( #201, #149, ( #34 ) ) ;
#76 = DIRECTION ( 'NONE',  ( 3.491481338843133355E-15, -1.224646799147353207E-16, 1.000000000000000000 ) ) ;
#77 = SECURITY_CLASSIFICATION ( '', '', #33 ) ;
#78 = DIRECTION ( 'NONE',  ( -3.491481338843133355E-15, 1.224646799147353207E-16, -1.000000000000000000 ) ) ;
#79 = DIRECTION ( 'NONE',  ( 4.275831445896959482E-31, 1.000000000000000000, 1.224646799147353454E-16 ) ) ;
#80 = PRODUCT_DEFINITION_FORMATION_WITH_SPECIFIED_SOURCE ( 'ANY', '', #34, .NOT_KNOWN. ) ;
#81 = PERSON_AND_ORGANIZATION ( #84, #111 ) ;
#82 = AXIS2_PLACEMENT_3D ( 'NONE', #192, #25, #60 ) ;
#83 = CC_DESIGN_APPROVAL ( #167, ( #77 ) ) ;
#84 = PERSON ( 'UNSPECIFIED', 'UNSPECIFIED', 'UNSPECIFIED', ('UNSPECIFIED'), ('UNSPECIFIED'), ('UNSPECIFIED') ) ;
#85 = DATE_AND_TIME ( #125, #183 ) ;
#86 = EDGE_CURVE ( 'NONE', #42, #42, #126, .T. ) ;
#87 = FACE_OUTER_BOUND ( 'NONE', #52, .T. ) ;
#88 = EDGE_LOOP ( 'NONE', ( #2 ) ) ;
#89 =( GEOMETRIC_REPRESENTATION_CONTEXT ( 3 ) GLOBAL_UNCERTAINTY_ASSIGNED_CONTEXT ( ( #200 ) ) GLOBAL_UNIT_ASSIGNED_CONTEXT ( ( #194, #163, #10 ) ) REPRESENTATION_CONTEXT ( 'NONE', 'WORKASPACE' ) );
#90 = ORIENTED_EDGE ( 'NONE', *, *, #91, .T. ) ;
#91 = EDGE_CURVE ( 'NONE', #180, #180, #73, .T. ) ;
#92 = DIRECTION ( 'NONE',  ( 0.0000000000000000000, 1.000000000000000000, 0.0000000000000000000 ) ) ;
#93 = FACE_OUTER_BOUND ( 'NONE', #189, .T. ) ;
#94 = CYLINDRICAL_SURFACE ( 'NONE', #3, 2.499999999999997780 ) ;
#95 = CONICAL_SURFACE ( 'NONE', #188, 2.499999999999992895, 1.221730476396026388 ) ;
#96 = CARTESIAN_POINT ( 'NONE',  ( 9.077851480992146724E-14, -3.184081677783118191E-15, 26.00000000000000000 ) ) ;
#97 = EDGE_CURVE ( 'NONE', #162, #162, #27, .T. ) ;
#98 = COORDINATED_UNIVERSAL_TIME_OFFSET ( 1, 0, .AHEAD. ) ;
#99 = COORDINATED_UNIVERSAL_TIME_OFFSET ( 1, 0, .AHEAD. ) ;
#100 = PERSON_AND_ORGANIZATION_ROLE ( 'design_supplier' ) ;
#101 = APPROVAL_PERSON_ORGANIZATION ( #108, #167, #29 ) ;
#102 = PLANE ( 'NONE',  #171 ) ;
#103 = ADVANCED_FACE ( 'NONE', ( #93 ), #22, .F. ) ;
#104 = CARTESIAN_POINT ( 'NONE',  ( 9.077851480992146724E-14, 1.874699728327314346E-32, 26.00000000000000000 ) ) ;
#105 = DIRECTION ( 'NONE',  ( 0.0000000000000000000, 1.000000000000000000, 0.0000000000000000000 ) ) ;
#106 = CARTESIAN_POINT ( 'NONE',  ( 2.147261023388527077E-13, 2.499999999999992895, 61.50000000000000000 ) ) ;
#107 = FACE_OUTER_BOUND ( 'NONE', #116, .T. ) ;
#108 = PERSON_AND_ORGANIZATION ( #84, #111 ) ;
#109 = DATE_TIME_ROLE ( 'classification_date' ) ;
#110 = PERSON_AND_ORGANIZATION ( #84, #111 ) ;
#111 = ORGANIZATION ( 'UNSPECIFIED', 'UNSPECIFIED', '' ) ;
#112 = EDGE_CURVE ( 'NONE', #148, #148, #160, .T. ) ;
#113 = CALENDAR_DATE ( 2021, 15, 10 ) ;
#114 = DIRECTION ( 'NONE',  ( 0.0000000000000000000, 1.000000000000000000, 0.0000000000000000000 ) ) ;
#115 = ORIENTED_EDGE ( 'NONE', *, *, #97, .T. ) ;
#116 = EDGE_LOOP ( 'NONE', ( #90 ) ) ;
#117 = ADVANCED_FACE ( 'NONE', ( #121, #107 ), #94, .T. ) ;
#118 = AXIS2_PLACEMENT_3D ( 'NONE', #68, #182, #199 ) ;
#119 = CIRCLE ( 'NONE', #53, 2.000000000000000444 ) ;
#120 = FACE_OUTER_BOUND ( 'NONE', #18, .T. ) ;
#121 = FACE_OUTER_BOUND ( 'NONE', #19, .T. ) ;
#122 = DIRECTION ( 'NONE',  ( -3.491481338843133355E-15, 1.224646799147353207E-16, -1.000000000000000000 ) ) ;
#123 = CARTESIAN_POINT ( 'NONE',  ( 2.164718430082742680E-13, 1.499759782661846387E-32, 62.00000000000000000 ) ) ;
#124 = ADVANCED_FACE ( 'NONE', ( #120 ), #146, .T. ) ;
#125 = CALENDAR_DATE ( 2021, 15, 10 ) ;
#126 = CIRCLE ( 'NONE', #140, 2.499999999999995559 ) ;
#127 = APPROVAL_STATUS ( 'not_yet_approved' ) ;
#128 = ADVANCED_FACE ( 'NONE', ( #7, #193 ), #136, .T. ) ;
#129 = APPROVAL_DATE_TIME ( #13, #167 ) ;
#130 = COORDINATED_UNIVERSAL_TIME_OFFSET ( 1, 0, .AHEAD. ) ;
#131 = CC_DESIGN_PERSON_AND_ORGANIZATION_ASSIGNMENT ( #81, #100, ( #80 ) ) ;
#132 = DIRECTION ( 'NONE',  ( -3.491481338843133355E-15, 1.224646799147353207E-16, -1.000000000000000000 ) ) ;
#133 = ORIENTED_EDGE ( 'NONE', *, *, #97, .F. ) ;
#134 = LOCAL_TIME ( 15, 34, 8.000000000000000000, #168 ) ;
#135 = DIRECTION ( 'NONE',  ( -4.622231866529379185E-31, -1.000000000000000000, -1.301042606982609019E-16 ) ) ;
#136 = CYLINDRICAL_SURFACE ( 'NONE', #82, 2.499999999999994227 ) ;
#137 = DIRECTION ( 'NONE',  ( -4.275831445896958607E-31, -1.000000000000000000, -1.224646799147353207E-16 ) ) ;
#138 = APPROVAL_PERSON_ORGANIZATION ( #110, #55, #15 ) ;
#139 = PERSON_AND_ORGANIZATION ( #84, #111 ) ;
#140 = AXIS2_PLACEMENT_3D ( 'NONE', #96, #61, #92 ) ;
#141 = DATE_TIME_ROLE ( 'creation_date' ) ;
#142 = APPLICATION_PROTOCOL_DEFINITION ( 'international standard', 'config_control_design', 1994, #187 ) ;
#143 = EDGE_LOOP ( 'NONE', ( #70 ) ) ;
#144 = AXIS2_PLACEMENT_3D ( 'NONE', #44, #78, #23 ) ;
#145 = PRODUCT_RELATED_PRODUCT_CATEGORY ( 'detail', '', ( #34 ) ) ;
#146 = PLANE ( 'NONE',  #37 ) ;
#147 = CARTESIAN_POINT ( 'NONE',  ( 9.077851480992146724E-14, -3.184081677783118191E-15, 26.00000000000000000 ) ) ;
#148 = VERTEX_POINT ( 'NONE', #9 ) ;
#149 = PERSON_AND_ORGANIZATION_ROLE ( 'design_owner' ) ;
#150 = APPLICATION_PROTOCOL_DEFINITION ( 'international standard', 'config_control_design', 1994, #64 ) ;
#151 = AXIS2_PLACEMENT_3D ( 'NONE', #176, #164, #105 ) ;
#152 = APPROVAL_ROLE ( '' ) ;
#153 = CALENDAR_DATE ( 2021, 15, 10 ) ;
#154 = CC_DESIGN_APPROVAL ( #55, ( #80 ) ) ;
#155 = CARTESIAN_POINT ( 'NONE',  ( 9.077851480992146724E-14, 1.874699728327314346E-32, 26.00000000000000000 ) ) ;
#156 = EDGE_LOOP ( 'NONE', ( #72 ) ) ;
#157 = APPROVAL ( #47, 'UNSPECIFIED' ) ;
#158 = FACE_BOUND ( 'NONE', #156, .T. ) ;
#159 = CC_DESIGN_DATE_AND_TIME_ASSIGNMENT ( #46, #141, ( #1 ) ) ;
#160 = CIRCLE ( 'NONE', #57, 2.499999999999995559 ) ;
#161 = DIRECTION ( 'NONE',  ( -3.491481338843133355E-15, 1.224646799147353207E-16, -1.000000000000000000 ) ) ;
#162 = VERTEX_POINT ( 'NONE', #24 ) ;
#163 =( NAMED_UNIT ( * ) PLANE_ANGLE_UNIT ( ) SI_UNIT ( $, .RADIAN. ) );
#164 = DIRECTION ( 'NONE',  ( -3.491481338843133355E-15, 1.224646799147353207E-16, -1.000000000000000000 ) ) ;
#165 = CC_DESIGN_SECURITY_CLASSIFICATION ( #77, ( #80 ) ) ;
#166 = CALENDAR_DATE ( 2021, 15, 10 ) ;
#167 = APPROVAL ( #127, 'UNSPECIFIED' ) ;
#168 = COORDINATED_UNIVERSAL_TIME_OFFSET ( 1, 0, .AHEAD. ) ;
#169 = APPROVAL_STATUS ( 'not_yet_approved' ) ;
#170 = PERSON_AND_ORGANIZATION_ROLE ( 'creator' ) ;
#171 = AXIS2_PLACEMENT_3D ( 'NONE', #155, #172, #54 ) ;
#172 = DIRECTION ( 'NONE',  ( 3.491481338843133355E-15, -1.224646799147353207E-16, 1.000000000000000000 ) ) ;
#173 = EDGE_LOOP ( 'NONE', ( #133 ) ) ;
#174 = ORIENTED_EDGE ( 'NONE', *, *, #112, .F. ) ;
#175 = CONICAL_SURFACE ( 'NONE', #151, 2.000000000000000444, 0.7853981633974473908 ) ;
#176 = CARTESIAN_POINT ( 'NONE',  ( 2.164718430082742680E-13, -7.592810154713590230E-15, 62.00000000000000000 ) ) ;
#177 = VERTEX_POINT ( 'NONE', #41 ) ;
#178 = CARTESIAN_POINT ( 'NONE',  ( 9.077851480992146724E-14, 2.499999999999992895, 26.00000000000000000 ) ) ;
#179 = CC_DESIGN_PERSON_AND_ORGANIZATION_ASSIGNMENT ( #49, #170, ( #80 ) ) ;
#180 = VERTEX_POINT ( 'NONE', #106 ) ;
#181 = CARTESIAN_POINT ( 'NONE',  ( 3.176988202087055285E-15, -1.114337455947554026E-16, 0.9099255856655151797 ) ) ;
#182 = DIRECTION ( 'NONE',  ( 0.0000000000000000000, 0.0000000000000000000, 1.000000000000000000 ) ) ;
#183 = LOCAL_TIME ( 15, 34, 8.000000000000000000, #99 ) ;
#184 = AXIS2_PLACEMENT_3D ( 'NONE', #123, #40, #6 ) ;
#185 = CALENDAR_DATE ( 2021, 15, 10 ) ;
#186 = PRODUCT_DEFINITION_SHAPE ( 'NONE', 'NONE',  #1 ) ;
#187 = APPLICATION_CONTEXT ( 'configuration controlled 3d designs of mechanical parts and assemblies' ) ;
#188 = AXIS2_PLACEMENT_3D ( 'NONE', #181, #76, #135 ) ;
#189 = EDGE_LOOP ( 'NONE', ( #4 ) ) ;
#190 = APPROVAL_PERSON_ORGANIZATION ( #30, #157, #152 ) ;
#191 = DIRECTION ( 'NONE',  ( 0.0000000000000000000, 1.000000000000000000, 0.0000000000000000000 ) ) ;
#192 = CARTESIAN_POINT ( 'NONE',  ( 0.0000000000000000000, 0.0000000000000000000, 0.0000000000000000000 ) ) ;
#193 = FACE_OUTER_BOUND ( 'NONE', #143, .T. ) ;
#194 =( LENGTH_UNIT ( ) NAMED_UNIT ( * ) SI_UNIT ( .MILLI., .METRE. ) );
#195 = DIRECTION ( 'NONE',  ( 0.0000000000000000000, 1.000000000000000000, 0.0000000000000000000 ) ) ;
#196 = PERSON_AND_ORGANIZATION_ROLE ( 'classification_officer' ) ;
#197 = LOCAL_TIME ( 15, 34, 8.000000000000000000, #67 ) ;
#198 = MECHANICAL_CONTEXT ( 'NONE', #187, 'mechanical' ) ;
#199 = DIRECTION ( 'NONE',  ( 1.000000000000000000, 0.0000000000000000000, 0.0000000000000000000 ) ) ;
#200 = UNCERTAINTY_MEASURE_WITH_UNIT (LENGTH_MEASURE( 1.000000000000000082E-05 ), #194, 'distance_accuracy_value', 'NONE');
#201 = PERSON_AND_ORGANIZATION ( #84, #111 ) ;
#202 = AXIS2_PLACEMENT_3D ( 'NONE', #62, #161, #195 ) ;
#203 = MANIFOLD_SOLID_BREP ( 'Corps-Déplacer/Copier1[1]', #69 ) ;
ENDSEC;
END-ISO-10303-21;
