ISO-10303-21;
HEADER;
FILE_DESCRIPTION (( 'STEP AP203' ),
    '1' );
FILE_NAME ('29113.step',
    '2021-10-15T13:34:07',
    ( '' ),
    ( '' ),
    'SwSTEP 2.0',
    'SolidWorks 2019',
    '' );
FILE_SCHEMA (( 'CONFIG_CONTROL_DESIGN' ));
ENDSEC;

DATA;
#1 = ADVANCED_FACE ( 'NONE', ( #157 ), #103, .F. ) ;
#2 = DIRECTION ( 'NONE',  ( 3.491481338843133355E-15, -1.224646799147353207E-16, 1.000000000000000000 ) ) ;
#3 = APPROVAL_PERSON_ORGANIZATION ( #97, #22, #166 ) ;
#4 = DIRECTION ( 'NONE',  ( 3.491481338843133355E-15, -1.224646799147353207E-16, 1.000000000000000000 ) ) ;
#5 = CARTESIAN_POINT ( 'NONE',  ( 2.164718430082742680E-13, 1.424771793528753506E-32, 62.00000000000000000 ) ) ;
#6 = DIRECTION ( 'NONE',  ( 4.275831445896958607E-31, 1.000000000000000000, 1.224646799147353207E-16 ) ) ;
#7 = APPLICATION_CONTEXT ( 'configuration controlled 3d designs of mechanical parts and assemblies' ) ;
#8 = VERTEX_POINT ( 'NONE', #73 ) ;
#9 = MECHANICAL_CONTEXT ( 'NONE', #7, 'mechanical' ) ;
#10 = CALENDAR_DATE ( 2021, 15, 10 ) ;
#11 = PERSON_AND_ORGANIZATION_ROLE ( 'creator' ) ;
#12 = CALENDAR_DATE ( 2021, 15, 10 ) ;
#13 = ADVANCED_BREP_SHAPE_REPRESENTATION ( '29113', ( #62, #132, #95 ), #170 ) ;
#14 = APPROVAL_ROLE ( '' ) ;
#15 = EDGE_CURVE ( 'NONE', #164, #164, #32, .T. ) ;
#16 = AXIS2_PLACEMENT_3D ( 'NONE', #133, #162, #40 ) ;
#17 = EDGE_LOOP ( 'NONE', ( #100 ) ) ;
#18 = ADVANCED_FACE ( 'NONE', ( #99, #171 ), #33, .T. ) ;
#19 =( LENGTH_UNIT ( ) NAMED_UNIT ( * ) SI_UNIT ( .MILLI., .METRE. ) );
#20 = PLANE ( 'NONE',  #144 ) ;
#21 = DIRECTION ( 'NONE',  ( -3.491481338843133355E-15, 1.224646799147353207E-16, -1.000000000000000000 ) ) ;
#22 = APPROVAL ( #46, 'UNSPECIFIED' ) ;
#23 = CLOSED_SHELL ( 'NONE', ( #1, #18, #43, #201 ) ) ;
#24 = DIRECTION ( 'NONE',  ( -3.491481338843133355E-15, 1.224646799147353207E-16, -1.000000000000000000 ) ) ;
#25 = CARTESIAN_POINT ( 'NONE',  ( 0.0000000000000000000, 0.0000000000000000000, 0.0000000000000000000 ) ) ;
#26 = DATE_AND_TIME ( #12, #137 ) ;
#27 = APPROVAL_STATUS ( 'not_yet_approved' ) ;
#28 = CIRCLE ( 'NONE', #41, 2.399999999999992806 ) ;
#29 = CC_DESIGN_PERSON_AND_ORGANIZATION_ASSIGNMENT ( #112, #78, ( #114 ) ) ;
#30 = APPROVAL_DATE_TIME ( #198, #87 ) ;
#31 = CARTESIAN_POINT ( 'NONE',  ( 2.164718430082742680E-13, -7.592810154713590230E-15, 62.00000000000000000 ) ) ;
#32 = CIRCLE ( 'NONE', #49, 1.900000000000000355 ) ;
#33 = CYLINDRICAL_SURFACE ( 'NONE', #52, 2.399999999999998135 ) ;
#34 = ORIENTED_EDGE ( 'NONE', *, *, #120, .F. ) ;
#35 = EDGE_LOOP ( 'NONE', ( #83 ) ) ;
#36 = CC_DESIGN_APPROVAL ( #87, ( #50 ) ) ;
#37 = EDGE_LOOP ( 'NONE', ( #158 ) ) ;
#38 = DIRECTION ( 'NONE',  ( 4.275831445896957731E-31, 1.000000000000000000, 1.224646799147353207E-16 ) ) ;
#39 = FACE_OUTER_BOUND ( 'NONE', #82, .T. ) ;
#40 = DIRECTION ( 'NONE',  ( 0.0000000000000000000, 1.000000000000000000, 0.0000000000000000000 ) ) ;
#41 = AXIS2_PLACEMENT_3D ( 'NONE', #54, #121, #107 ) ;
#42 = APPROVAL_STATUS ( 'not_yet_approved' ) ;
#43 = ADVANCED_FACE ( 'NONE', ( #134, #108 ), #161, .T. ) ;
#44 = SECURITY_CLASSIFICATION_LEVEL ( 'unclassified' ) ;
#45 = PERSON_AND_ORGANIZATION ( #173, #190 ) ;
#46 = APPROVAL_STATUS ( 'not_yet_approved' ) ;
#47 = COORDINATED_UNIVERSAL_TIME_OFFSET ( 1, 0, .AHEAD. ) ;
#48 = DIRECTION ( 'NONE',  ( -3.491481338843133355E-15, 1.224646799147353207E-16, -1.000000000000000000 ) ) ;
#49 = AXIS2_PLACEMENT_3D ( 'NONE', #31, #48, #116 ) ;
#50 = PRODUCT_DEFINITION ( 'UNKNOWN', '', #122, #128 ) ;
#51 = EDGE_LOOP ( 'NONE', ( #146 ) ) ;
#52 = AXIS2_PLACEMENT_3D ( 'NONE', #135, #151, #38 ) ;
#53 = VERTEX_POINT ( 'NONE', #57 ) ;
#54 = CARTESIAN_POINT ( 'NONE',  ( 3.049908674003572963E-15, -1.069763957709651870E-16, 0.8735285622388946347 ) ) ;
#55 = DIRECTION ( 'NONE',  ( 4.275831445896959482E-31, 1.000000000000000000, 1.224646799147353207E-16 ) ) ;
#56 = CC_DESIGN_APPROVAL ( #22, ( #122 ) ) ;
#57 = CARTESIAN_POINT ( 'NONE',  ( 9.077851480992146724E-14, 2.399999999999992806, 26.00000000000000000 ) ) ;
#58 = FACE_OUTER_BOUND ( 'NONE', #189, .T. ) ;
#59 = COORDINATED_UNIVERSAL_TIME_OFFSET ( 1, 0, .AHEAD. ) ;
#60 = APPLICATION_PROTOCOL_DEFINITION ( 'international standard', 'config_control_design', 1994, #7 ) ;
#61 = DATE_AND_TIME ( #183, #174 ) ;
#62 = MANIFOLD_SOLID_BREP ( 'Corps-Déplacer/Copier1[1]', #23 ) ;
#63 = APPROVAL_PERSON_ORGANIZATION ( #45, #87, #124 ) ;
#64 = PRODUCT ( '29113', '29113', '', ( #9 ) ) ;
#65 = ADVANCED_FACE ( 'NONE', ( #148 ), #203, .T. ) ;
#66 = AXIS2_PLACEMENT_3D ( 'NONE', #72, #196, #89 ) ;
#67 = CC_DESIGN_PERSON_AND_ORGANIZATION_ASSIGNMENT ( #200, #111, ( #50 ) ) ;
#68 = ORIENTED_EDGE ( 'NONE', *, *, #191, .T. ) ;
#69 = DIRECTION ( 'NONE',  ( 0.0000000000000000000, 1.000000000000000000, 0.0000000000000000000 ) ) ;
#70 = CIRCLE ( 'NONE', #66, 2.399999999999995914 ) ;
#71 = CARTESIAN_POINT ( 'NONE',  ( 9.077851480992146724E-14, 1.799711739194221740E-32, 26.00000000000000000 ) ) ;
#72 = CARTESIAN_POINT ( 'NONE',  ( 9.077851480992146724E-14, -3.184081677783118191E-15, 26.00000000000000000 ) ) ;
#73 = CARTESIAN_POINT ( 'NONE',  ( 2.147261023388527077E-13, 2.399999999999992806, 61.50000000000000000 ) ) ;
#74 = APPROVAL_PERSON_ORGANIZATION ( #126, #104, #14 ) ;
#75 = FACE_OUTER_BOUND ( 'NONE', #17, .T. ) ;
#76 = PERSON_AND_ORGANIZATION ( #173, #190 ) ;
#77 = AXIS2_PLACEMENT_3D ( 'NONE', #160, #88, #178 ) ;
#78 = PERSON_AND_ORGANIZATION_ROLE ( 'classification_officer' ) ;
#79 = CALENDAR_DATE ( 2021, 15, 10 ) ;
#80 = CC_DESIGN_PERSON_AND_ORGANIZATION_ASSIGNMENT ( #138, #184, ( #64 ) ) ;
#81 = PERSON_AND_ORGANIZATION ( #173, #190 ) ;
#82 = EDGE_LOOP ( 'NONE', ( #34 ) ) ;
#83 = ORIENTED_EDGE ( 'NONE', *, *, #113, .F. ) ;
#84 = AXIS2_PLACEMENT_3D ( 'NONE', #136, #21, #55 ) ;
#85 = CC_DESIGN_APPROVAL ( #104, ( #114 ) ) ;
#86 = ORIENTED_EDGE ( 'NONE', *, *, #188, .F. ) ;
#87 = APPROVAL ( #42, 'UNSPECIFIED' ) ;
#88 = DIRECTION ( 'NONE',  ( 3.491481338843133355E-15, -1.224646799147353207E-16, 1.000000000000000000 ) ) ;
#89 = DIRECTION ( 'NONE',  ( 0.0000000000000000000, 1.000000000000000000, 0.0000000000000000000 ) ) ;
#90 = CARTESIAN_POINT ( 'NONE',  ( 9.077851480992146724E-14, -3.184081677783118191E-15, 26.00000000000000000 ) ) ;
#91 =( NAMED_UNIT ( * ) PLANE_ANGLE_UNIT ( ) SI_UNIT ( $, .RADIAN. ) );
#92 = ADVANCED_FACE ( 'NONE', ( #58 ), #20, .T. ) ;
#93 = DIRECTION ( 'NONE',  ( 0.0000000000000000000, 0.0000000000000000000, 1.000000000000000000 ) ) ;
#94 = APPROVAL_DATE_TIME ( #199, #22 ) ;
#95 = AXIS2_PLACEMENT_3D ( 'NONE', #25, #93, #185 ) ;
#96 = COORDINATED_UNIVERSAL_TIME_OFFSET ( 1, 0, .AHEAD. ) ;
#97 = PERSON_AND_ORGANIZATION ( #173, #190 ) ;
#98 = CIRCLE ( 'NONE', #125, 2.399999999999995914 ) ;
#99 = FACE_OUTER_BOUND ( 'NONE', #118, .T. ) ;
#100 = ORIENTED_EDGE ( 'NONE', *, *, #15, .F. ) ;
#101 = ORIENTED_EDGE ( 'NONE', *, *, #188, .T. ) ;
#102 = CC_DESIGN_SECURITY_CLASSIFICATION ( #114, ( #122 ) ) ;
#103 = PLANE ( 'NONE',  #192 ) ;
#104 = APPROVAL ( #27, 'UNSPECIFIED' ) ;
#105 = CARTESIAN_POINT ( 'NONE',  ( 2.147261023388527077E-13, -7.531577814756222656E-15, 61.50000000000000000 ) ) ;
#106 = FACE_OUTER_BOUND ( 'NONE', #175, .T. ) ;
#107 = DIRECTION ( 'NONE',  ( 4.814824860968103646E-31, 1.000000000000000000, 1.355252715606884487E-16 ) ) ;
#108 = FACE_BOUND ( 'NONE', #115, .T. ) ;
#109 = CC_DESIGN_PERSON_AND_ORGANIZATION_ASSIGNMENT ( #81, #140, ( #122 ) ) ;
#110 =( NAMED_UNIT ( * ) SI_UNIT ( $, .STERADIAN. ) SOLID_ANGLE_UNIT ( ) );
#111 = PERSON_AND_ORGANIZATION_ROLE ( 'creator' ) ;
#112 = PERSON_AND_ORGANIZATION ( #173, #190 ) ;
#113 = EDGE_CURVE ( 'NONE', #8, #8, #117, .T. ) ;
#114 = SECURITY_CLASSIFICATION ( '', '', #44 ) ;
#115 = EDGE_LOOP ( 'NONE', ( #159 ) ) ;
#116 = DIRECTION ( 'NONE',  ( 0.0000000000000000000, 1.000000000000000000, 0.0000000000000000000 ) ) ;
#117 = CIRCLE ( 'NONE', #182, 2.400000000000000355 ) ;
#118 = EDGE_LOOP ( 'NONE', ( #172 ) ) ;
#119 = DIRECTION ( 'NONE',  ( -3.491481338843133355E-15, 1.224646799147353207E-16, -1.000000000000000000 ) ) ;
#120 = EDGE_CURVE ( 'NONE', #197, #197, #28, .T. ) ;
#121 = DIRECTION ( 'NONE',  ( -3.491481338843133355E-15, 1.224646799147353207E-16, -1.000000000000000000 ) ) ;
#122 = PRODUCT_DEFINITION_FORMATION_WITH_SPECIFIED_SOURCE ( 'ANY', '', #64, .NOT_KNOWN. ) ;
#123 = VERTEX_POINT ( 'NONE', #180 ) ;
#124 = APPROVAL_ROLE ( '' ) ;
#125 = AXIS2_PLACEMENT_3D ( 'NONE', #90, #119, #179 ) ;
#126 = PERSON_AND_ORGANIZATION ( #173, #190 ) ;
#127 = DATE_AND_TIME ( #79, #186 ) ;
#128 = DESIGN_CONTEXT ( 'detailed design', #156, 'design' ) ;
#129 = LOCAL_TIME ( 15, 34, 7.000000000000000000, #169 ) ;
#130 = CARTESIAN_POINT ( 'NONE',  ( 9.077851480992146724E-14, 1.799711739194221740E-32, 26.00000000000000000 ) ) ;
#131 = EDGE_LOOP ( 'NONE', ( #68 ) ) ;
#132 = MANIFOLD_SOLID_BREP ( 'Corps-Déplacer/Copier1[2]', #141 ) ;
#133 = CARTESIAN_POINT ( 'NONE',  ( 2.164718430082742680E-13, -7.592810154713590230E-15, 62.00000000000000000 ) ) ;
#134 = FACE_OUTER_BOUND ( 'NONE', #35, .T. ) ;
#135 = CARTESIAN_POINT ( 'NONE',  ( 0.0000000000000000000, 0.0000000000000000000, 0.0000000000000000000 ) ) ;
#136 = CARTESIAN_POINT ( 'NONE',  ( 0.0000000000000000000, 0.0000000000000000000, 0.0000000000000000000 ) ) ;
#137 = LOCAL_TIME ( 15, 34, 7.000000000000000000, #167 ) ;
#138 = PERSON_AND_ORGANIZATION ( #173, #190 ) ;
#139 = CC_DESIGN_DATE_AND_TIME_ASSIGNMENT ( #26, #154, ( #114 ) ) ;
#140 = PERSON_AND_ORGANIZATION_ROLE ( 'design_supplier' ) ;
#141 = CLOSED_SHELL ( 'NONE', ( #65, #181, #92 ) ) ;
#142 = SHAPE_DEFINITION_REPRESENTATION ( #152, #13 ) ;
#143 = CALENDAR_DATE ( 2021, 15, 10 ) ;
#144 = AXIS2_PLACEMENT_3D ( 'NONE', #71, #4, #195 ) ;
#145 = LOCAL_TIME ( 15, 34, 7.000000000000000000, #59 ) ;
#146 = ORIENTED_EDGE ( 'NONE', *, *, #120, .T. ) ;
#147 = AXIS2_PLACEMENT_3D ( 'NONE', #5, #150, #6 ) ;
#148 = FACE_OUTER_BOUND ( 'NONE', #51, .T. ) ;
#149 = PLANE ( 'NONE',  #147 ) ;
#150 = DIRECTION ( 'NONE',  ( -3.491481338843133355E-15, 1.224646799147353207E-16, -1.000000000000000000 ) ) ;
#151 = DIRECTION ( 'NONE',  ( -3.491481338843133355E-15, 1.224646799147353207E-16, -1.000000000000000000 ) ) ;
#152 = PRODUCT_DEFINITION_SHAPE ( 'NONE', 'NONE',  #50 ) ;
#153 = DATE_TIME_ROLE ( 'creation_date' ) ;
#154 = DATE_TIME_ROLE ( 'classification_date' ) ;
#155 = APPROVAL_DATE_TIME ( #127, #104 ) ;
#156 = APPLICATION_CONTEXT ( 'configuration controlled 3d designs of mechanical parts and assemblies' ) ;
#157 = FACE_OUTER_BOUND ( 'NONE', #131, .T. ) ;
#158 = ORIENTED_EDGE ( 'NONE', *, *, #113, .T. ) ;
#159 = ORIENTED_EDGE ( 'NONE', *, *, #15, .T. ) ;
#160 = CARTESIAN_POINT ( 'NONE',  ( 3.049908674003572963E-15, -1.069763957709651870E-16, 0.8735285622388946347 ) ) ;
#161 = CONICAL_SURFACE ( 'NONE', #16, 1.900000000000000355, 0.7853981633974476129 ) ;
#162 = DIRECTION ( 'NONE',  ( -3.491481338843133355E-15, 1.224646799147353207E-16, -1.000000000000000000 ) ) ;
#163 = CYLINDRICAL_SURFACE ( 'NONE', #84, 2.399999999999994138 ) ;
#164 = VERTEX_POINT ( 'NONE', #177 ) ;
#165 = CC_DESIGN_DATE_AND_TIME_ASSIGNMENT ( #61, #153, ( #50 ) ) ;
#166 = APPROVAL_ROLE ( '' ) ;
#167 = COORDINATED_UNIVERSAL_TIME_OFFSET ( 1, 0, .AHEAD. ) ;
#168 = APPLICATION_PROTOCOL_DEFINITION ( 'international standard', 'config_control_design', 1994, #156 ) ;
#169 = COORDINATED_UNIVERSAL_TIME_OFFSET ( 1, 0, .AHEAD. ) ;
#170 =( GEOMETRIC_REPRESENTATION_CONTEXT ( 3 ) GLOBAL_UNCERTAINTY_ASSIGNED_CONTEXT ( ( #202 ) ) GLOBAL_UNIT_ASSIGNED_CONTEXT ( ( #19, #91, #110 ) ) REPRESENTATION_CONTEXT ( 'NONE', 'WORKASPACE' ) );
#171 = FACE_OUTER_BOUND ( 'NONE', #37, .T. ) ;
#172 = ORIENTED_EDGE ( 'NONE', *, *, #191, .F. ) ;
#173 = PERSON ( 'UNSPECIFIED', 'UNSPECIFIED', 'UNSPECIFIED', ('UNSPECIFIED'), ('UNSPECIFIED'), ('UNSPECIFIED') ) ;
#174 = LOCAL_TIME ( 15, 34, 7.000000000000000000, #47 ) ;
#175 = EDGE_LOOP ( 'NONE', ( #101 ) ) ;
#176 = CC_DESIGN_PERSON_AND_ORGANIZATION_ASSIGNMENT ( #76, #11, ( #122 ) ) ;
#177 = CARTESIAN_POINT ( 'NONE',  ( 2.164718430082742680E-13, 1.899999999999992806, 62.00000000000000000 ) ) ;
#178 = DIRECTION ( 'NONE',  ( -4.814824860968103646E-31, -1.000000000000000000, -1.355252715606884487E-16 ) ) ;
#179 = DIRECTION ( 'NONE',  ( 0.0000000000000000000, 1.000000000000000000, 0.0000000000000000000 ) ) ;
#180 = CARTESIAN_POINT ( 'NONE',  ( 9.077851480992146724E-14, 2.399999999999992806, 26.00000000000000000 ) ) ;
#181 = ADVANCED_FACE ( 'NONE', ( #39, #106 ), #163, .T. ) ;
#182 = AXIS2_PLACEMENT_3D ( 'NONE', #105, #24, #69 ) ;
#183 = CALENDAR_DATE ( 2021, 15, 10 ) ;
#184 = PERSON_AND_ORGANIZATION_ROLE ( 'design_owner' ) ;
#185 = DIRECTION ( 'NONE',  ( 1.000000000000000000, 0.0000000000000000000, 0.0000000000000000000 ) ) ;
#186 = LOCAL_TIME ( 15, 34, 7.000000000000000000, #96 ) ;
#187 = DIRECTION ( 'NONE',  ( -4.275831445896958607E-31, -1.000000000000000000, -1.224646799147353207E-16 ) ) ;
#188 = EDGE_CURVE ( 'NONE', #53, #53, #70, .T. ) ;
#189 = EDGE_LOOP ( 'NONE', ( #86 ) ) ;
#190 = ORGANIZATION ( 'UNSPECIFIED', 'UNSPECIFIED', '' ) ;
#191 = EDGE_CURVE ( 'NONE', #123, #123, #98, .T. ) ;
#192 = AXIS2_PLACEMENT_3D ( 'NONE', #130, #2, #187 ) ;
#193 = CARTESIAN_POINT ( 'NONE',  ( 3.049908674003574146E-15, 2.399999999999992806, 0.8735285622388949678 ) ) ;
#194 = PRODUCT_RELATED_PRODUCT_CATEGORY ( 'detail', '', ( #64 ) ) ;
#195 = DIRECTION ( 'NONE',  ( -4.275831445896958607E-31, -1.000000000000000000, -1.224646799147353207E-16 ) ) ;
#196 = DIRECTION ( 'NONE',  ( -3.491481338843133355E-15, 1.224646799147353207E-16, -1.000000000000000000 ) ) ;
#197 = VERTEX_POINT ( 'NONE', #193 ) ;
#198 = DATE_AND_TIME ( #143, #129 ) ;
#199 = DATE_AND_TIME ( #10, #145 ) ;
#200 = PERSON_AND_ORGANIZATION ( #173, #190 ) ;
#201 = ADVANCED_FACE ( 'NONE', ( #75 ), #149, .F. ) ;
#202 = UNCERTAINTY_MEASURE_WITH_UNIT (LENGTH_MEASURE( 1.000000000000000082E-05 ), #19, 'distance_accuracy_value', 'NONE');
#203 = CONICAL_SURFACE ( 'NONE', #77, 2.399999999999992806, 1.221730476396026388 ) ;
ENDSEC;
END-ISO-10303-21;
