ISO-10303-21;
HEADER;
FILE_DESCRIPTION (( 'STEP AP203' ),
    '1' );
FILE_NAME ('29112.step',
    '2021-10-15T13:34:06',
    ( '' ),
    ( '' ),
    'SwSTEP 2.0',
    'SolidWorks 2019',
    '' );
FILE_SCHEMA (( 'CONFIG_CONTROL_DESIGN' ));
ENDSEC;

DATA;
#1 = ORIENTED_EDGE ( 'NONE', *, *, #134, .T. ) ;
#2 = CARTESIAN_POINT ( 'NONE',  ( 2.007601769834801742E-13, -7.041719095097280485E-15, 57.50000000000000000 ) ) ;
#3 = VERTEX_POINT ( 'NONE', #5 ) ;
#4 = CC_DESIGN_APPROVAL ( #59, ( #17 ) ) ;
#5 = CARTESIAN_POINT ( 'NONE',  ( 8.379555213223520053E-14, 2.249999999999993339, 24.00000000000000000 ) ) ;
#6 = CC_DESIGN_PERSON_AND_ORGANIZATION_ASSIGNMENT ( #166, #163, ( #17 ) ) ;
#7 = APPROVAL_DATE_TIME ( #138, #125 ) ;
#8 = EDGE_CURVE ( 'NONE', #95, #95, #139, .T. ) ;
#9 = DATE_AND_TIME ( #99, #115 ) ;
#10 = CALENDAR_DATE ( 2021, 15, 10 ) ;
#11 = FACE_OUTER_BOUND ( 'NONE', #73, .T. ) ;
#12 = ORIENTED_EDGE ( 'NONE', *, *, #8, .F. ) ;
#13 = EDGE_LOOP ( 'NONE', ( #128 ) ) ;
#14 = ADVANCED_FACE ( 'NONE', ( #30, #154 ), #156, .T. ) ;
#15 =( LENGTH_UNIT ( ) NAMED_UNIT ( * ) SI_UNIT ( .MILLI., .METRE. ) );
#16 = PLANE ( 'NONE',  #92 ) ;
#17 = PRODUCT_DEFINITION_FORMATION_WITH_SPECIFIED_SOURCE ( 'ANY', '', #104, .NOT_KNOWN. ) ;
#18 =( NAMED_UNIT ( * ) SI_UNIT ( $, .STERADIAN. ) SOLID_ANGLE_UNIT ( ) );
#19 = PERSON_AND_ORGANIZATION_ROLE ( 'classification_officer' ) ;
#20 = APPROVAL_STATUS ( 'not_yet_approved' ) ;
#21 = SECURITY_CLASSIFICATION_LEVEL ( 'unclassified' ) ;
#22 = APPLICATION_CONTEXT ( 'configuration controlled 3d designs of mechanical parts and assemblies' ) ;
#23 = CALENDAR_DATE ( 2021, 15, 10 ) ;
#24 = DIRECTION ( 'NONE',  ( 0.0000000000000000000, 1.000000000000000000, 0.0000000000000000000 ) ) ;
#25 = MANIFOLD_SOLID_BREP ( 'Corps-Déplacer/Copier1[2]', #37 ) ;
#26 = AXIS2_PLACEMENT_3D ( 'NONE', #126, #172, #40 ) ;
#27 = LOCAL_TIME ( 15, 34, 6.000000000000000000, #52 ) ;
#28 = EDGE_LOOP ( 'NONE', ( #74 ) ) ;
#29 = MANIFOLD_SOLID_BREP ( 'Corps-Déplacer/Copier1[1]', #56 ) ;
#30 = FACE_OUTER_BOUND ( 'NONE', #202, .T. ) ;
#31 = CARTESIAN_POINT ( 'NONE',  ( 8.379555213223520053E-14, -2.939152317953647894E-15, 24.00000000000000000 ) ) ;
#32 = FACE_OUTER_BOUND ( 'NONE', #13, .T. ) ;
#33 = DIRECTION ( 'NONE',  ( -3.491481338843133355E-15, 1.224646799147353207E-16, -1.000000000000000000 ) ) ;
#34 = CARTESIAN_POINT ( 'NONE',  ( 2.007601769834801742E-13, 2.249999999999993339, 57.50000000000000000 ) ) ;
#35 = AXIS2_PLACEMENT_3D ( 'NONE', #194, #133, #190 ) ;
#36 = APPROVAL_ROLE ( '' ) ;
#37 = CLOSED_SHELL ( 'NONE', ( #162, #199, #116 ) ) ;
#38 = COORDINATED_UNIVERSAL_TIME_OFFSET ( 1, 0, .AHEAD. ) ;
#39 = DATE_AND_TIME ( #98, #65 ) ;
#40 = DIRECTION ( 'NONE',  ( 3.423875456688429463E-31, 1.000000000000000000, 1.445602896647343601E-16 ) ) ;
#41 = ADVANCED_FACE ( 'NONE', ( #85, #11 ), #187, .T. ) ;
#42 = EDGE_LOOP ( 'NONE', ( #87 ) ) ;
#43 = FACE_OUTER_BOUND ( 'NONE', #143, .T. ) ;
#44 = DIRECTION ( 'NONE',  ( 4.275831445896958607E-31, 1.000000000000000000, 1.224646799147353207E-16 ) ) ;
#45 = APPROVAL_PERSON_ORGANIZATION ( #140, #125, #150 ) ;
#46 = CARTESIAN_POINT ( 'NONE',  ( 0.0000000000000000000, 0.0000000000000000000, 0.0000000000000000000 ) ) ;
#47 = DIRECTION ( 'NONE',  ( 0.0000000000000000000, 1.000000000000000000, 0.0000000000000000000 ) ) ;
#48 = DIRECTION ( 'NONE',  ( 3.491481338843133355E-15, -1.224646799147353207E-16, 1.000000000000000000 ) ) ;
#49 = APPROVAL_DATE_TIME ( #39, #59 ) ;
#50 = APPROVAL_ROLE ( '' ) ;
#51 = CIRCLE ( 'NONE', #121, 1.750000000000000444 ) ;
#52 = COORDINATED_UNIVERSAL_TIME_OFFSET ( 1, 0, .AHEAD. ) ;
#53 = PERSON_AND_ORGANIZATION_ROLE ( 'design_supplier' ) ;
#54 = AXIS2_PLACEMENT_3D ( 'NONE', #46, #33, #91 ) ;
#55 = ORIENTED_EDGE ( 'NONE', *, *, #101, .T. ) ;
#56 = CLOSED_SHELL ( 'NONE', ( #174, #41, #14, #167 ) ) ;
#57 = AXIS2_PLACEMENT_3D ( 'NONE', #103, #169, #24 ) ;
#58 = DIRECTION ( 'NONE',  ( 0.0000000000000000000, 1.000000000000000000, 0.0000000000000000000 ) ) ;
#59 = APPROVAL ( #152, 'UNSPECIFIED' ) ;
#60 = UNCERTAINTY_MEASURE_WITH_UNIT (LENGTH_MEASURE( 1.000000000000000082E-05 ), #15, 'distance_accuracy_value', 'NONE');
#61 = CARTESIAN_POINT ( 'NONE',  ( 8.379555213223520053E-14, 1.687229755494582693E-32, 24.00000000000000000 ) ) ;
#62 = DIRECTION ( 'NONE',  ( 4.275831445896958607E-31, 1.000000000000000000, 1.224646799147352961E-16 ) ) ;
#63 = PERSON_AND_ORGANIZATION_ROLE ( 'design_owner' ) ;
#64 = CIRCLE ( 'NONE', #153, 2.249999999999996447 ) ;
#65 = LOCAL_TIME ( 15, 34, 6.000000000000000000, #69 ) ;
#66 = PERSON_AND_ORGANIZATION ( #193, #129 ) ;
#67 = PERSON_AND_ORGANIZATION ( #193, #129 ) ;
#68 = EDGE_CURVE ( 'NONE', #3, #3, #64, .T. ) ;
#69 = COORDINATED_UNIVERSAL_TIME_OFFSET ( 1, 0, .AHEAD. ) ;
#70 = CONICAL_SURFACE ( 'NONE', #149, 2.249999999999993339, 1.221730476396026610 ) ;
#71 = PERSON_AND_ORGANIZATION_ROLE ( 'creator' ) ;
#72 = DESIGN_CONTEXT ( 'detailed design', #22, 'design' ) ;
#73 = EDGE_LOOP ( 'NONE', ( #86 ) ) ;
#74 = ORIENTED_EDGE ( 'NONE', *, *, #68, .T. ) ;
#75 = CC_DESIGN_PERSON_AND_ORGANIZATION_ASSIGNMENT ( #67, #63, ( #104 ) ) ;
#76 = CARTESIAN_POINT ( 'NONE',  ( 2.025059176529017346E-13, 1.749999999999993339, 58.00000000000000000 ) ) ;
#77 = DIRECTION ( 'NONE',  ( 3.491481338843133355E-15, -1.224646799147353207E-16, 1.000000000000000000 ) ) ;
#78 = CIRCLE ( 'NONE', #102, 2.250000000000000444 ) ;
#79 = APPROVAL_DATE_TIME ( #183, #107 ) ;
#80 = DATE_TIME_ROLE ( 'classification_date' ) ;
#81 = PERSON_AND_ORGANIZATION ( #193, #129 ) ;
#82 = APPROVAL_PERSON_ORGANIZATION ( #151, #107, #36 ) ;
#83 = DATE_TIME_ROLE ( 'creation_date' ) ;
#84 = CC_DESIGN_PERSON_AND_ORGANIZATION_ASSIGNMENT ( #120, #19, ( #117 ) ) ;
#85 = FACE_OUTER_BOUND ( 'NONE', #109, .T. ) ;
#86 = ORIENTED_EDGE ( 'NONE', *, *, #142, .T. ) ;
#87 = ORIENTED_EDGE ( 'NONE', *, *, #68, .F. ) ;
#88 = AXIS2_PLACEMENT_3D ( 'NONE', #105, #175, #62 ) ;
#89 = FACE_OUTER_BOUND ( 'NONE', #42, .T. ) ;
#90 = DIRECTION ( 'NONE',  ( -3.491481338843133355E-15, 1.224646799147353207E-16, -1.000000000000000000 ) ) ;
#91 = DIRECTION ( 'NONE',  ( 4.275831445896958607E-31, 1.000000000000000000, 1.224646799147353207E-16 ) ) ;
#92 = AXIS2_PLACEMENT_3D ( 'NONE', #61, #77, #113 ) ;
#93 = PLANE ( 'NONE',  #35 ) ;
#94 = CC_DESIGN_SECURITY_CLASSIFICATION ( #117, ( #17 ) ) ;
#95 = VERTEX_POINT ( 'NONE', #158 ) ;
#96 = CC_DESIGN_DATE_AND_TIME_ASSIGNMENT ( #9, #83, ( #130 ) ) ;
#97 = SHAPE_DEFINITION_REPRESENTATION ( #179, #200 ) ;
#98 = CALENDAR_DATE ( 2021, 15, 10 ) ;
#99 = CALENDAR_DATE ( 2021, 15, 10 ) ;
#100 = PERSON_AND_ORGANIZATION ( #193, #129 ) ;
#101 = EDGE_CURVE ( 'NONE', #161, #161, #51, .T. ) ;
#102 = AXIS2_PLACEMENT_3D ( 'NONE', #2, #118, #192 ) ;
#103 = CARTESIAN_POINT ( 'NONE',  ( 2.025059176529017346E-13, -7.102951435054648059E-15, 58.00000000000000000 ) ) ;
#104 = PRODUCT ( '29112', '29112', '', ( #185 ) ) ;
#105 = CARTESIAN_POINT ( 'NONE',  ( 0.0000000000000000000, 0.0000000000000000000, 0.0000000000000000000 ) ) ;
#106 = AXIS2_PLACEMENT_3D ( 'NONE', #181, #90, #44 ) ;
#107 = APPROVAL ( #198, 'UNSPECIFIED' ) ;
#108 = EDGE_LOOP ( 'NONE', ( #141 ) ) ;
#109 = EDGE_LOOP ( 'NONE', ( #127 ) ) ;
#110 = CARTESIAN_POINT ( 'NONE',  ( 8.379555213223520053E-14, -2.939152317953647894E-15, 24.00000000000000000 ) ) ;
#111 = DIRECTION ( 'NONE',  ( -3.491481338843133355E-15, 1.224646799147353207E-16, -1.000000000000000000 ) ) ;
#112 = APPLICATION_CONTEXT ( 'configuration controlled 3d designs of mechanical parts and assemblies' ) ;
#113 = DIRECTION ( 'NONE',  ( -4.275831445896958607E-31, -1.000000000000000000, -1.224646799147353207E-16 ) ) ;
#114 = VERTEX_POINT ( 'NONE', #145 ) ;
#115 = LOCAL_TIME ( 15, 34, 6.000000000000000000, #38 ) ;
#116 = ADVANCED_FACE ( 'NONE', ( #89 ), #93, .T. ) ;
#117 = SECURITY_CLASSIFICATION ( '', '', #21 ) ;
#118 = DIRECTION ( 'NONE',  ( -3.491481338843133355E-15, 1.224646799147353207E-16, -1.000000000000000000 ) ) ;
#119 = COORDINATED_UNIVERSAL_TIME_OFFSET ( 1, 0, .AHEAD. ) ;
#120 = PERSON_AND_ORGANIZATION ( #193, #129 ) ;
#121 = AXIS2_PLACEMENT_3D ( 'NONE', #178, #146, #58 ) ;
#122 = LOCAL_TIME ( 15, 34, 6.000000000000000000, #124 ) ;
#123 = APPLICATION_PROTOCOL_DEFINITION ( 'international standard', 'config_control_design', 1994, #112 ) ;
#124 = COORDINATED_UNIVERSAL_TIME_OFFSET ( 1, 0, .AHEAD. ) ;
#125 = APPROVAL ( #20, 'UNSPECIFIED' ) ;
#126 = CARTESIAN_POINT ( 'NONE',  ( 2.859289381878349283E-15, -1.002903710352798451E-16, 0.8189330270989635396 ) ) ;
#127 = ORIENTED_EDGE ( 'NONE', *, *, #134, .F. ) ;
#128 = ORIENTED_EDGE ( 'NONE', *, *, #8, .T. ) ;
#129 = ORGANIZATION ( 'UNSPECIFIED', 'UNSPECIFIED', '' ) ;
#130 = PRODUCT_DEFINITION ( 'UNKNOWN', '', #17, #72 ) ;
#131 = CARTESIAN_POINT ( 'NONE',  ( 2.859289381878349283E-15, -1.002903710352798451E-16, 0.8189330270989635396 ) ) ;
#132 = DIRECTION ( 'NONE',  ( -3.491481338843133355E-15, 1.224646799147353207E-16, -1.000000000000000000 ) ) ;
#133 = DIRECTION ( 'NONE',  ( 3.491481338843133355E-15, -1.224646799147353207E-16, 1.000000000000000000 ) ) ;
#134 = EDGE_CURVE ( 'NONE', #114, #114, #170, .T. ) ;
#135 = FACE_OUTER_BOUND ( 'NONE', #28, .T. ) ;
#136 = DIRECTION ( 'NONE',  ( -3.423875456688429463E-31, -1.000000000000000000, -1.445602896647343601E-16 ) ) ;
#137 = DIRECTION ( 'NONE',  ( 0.0000000000000000000, 0.0000000000000000000, 1.000000000000000000 ) ) ;
#138 = DATE_AND_TIME ( #186, #122 ) ;
#139 = CIRCLE ( 'NONE', #26, 2.249999999999993339 ) ;
#140 = PERSON_AND_ORGANIZATION ( #193, #129 ) ;
#141 = ORIENTED_EDGE ( 'NONE', *, *, #101, .F. ) ;
#142 = EDGE_CURVE ( 'NONE', #147, #147, #78, .T. ) ;
#143 = EDGE_LOOP ( 'NONE', ( #12 ) ) ;
#144 =( GEOMETRIC_REPRESENTATION_CONTEXT ( 3 ) GLOBAL_UNCERTAINTY_ASSIGNED_CONTEXT ( ( #60 ) ) GLOBAL_UNIT_ASSIGNED_CONTEXT ( ( #15, #195, #18 ) ) REPRESENTATION_CONTEXT ( 'NONE', 'WORKASPACE' ) );
#145 = CARTESIAN_POINT ( 'NONE',  ( 8.379555213223520053E-14, 2.249999999999993339, 24.00000000000000000 ) ) ;
#146 = DIRECTION ( 'NONE',  ( -3.491481338843133355E-15, 1.224646799147353207E-16, -1.000000000000000000 ) ) ;
#147 = VERTEX_POINT ( 'NONE', #34 ) ;
#148 = FACE_OUTER_BOUND ( 'NONE', #108, .T. ) ;
#149 = AXIS2_PLACEMENT_3D ( 'NONE', #131, #48, #136 ) ;
#150 = APPROVAL_ROLE ( '' ) ;
#151 = PERSON_AND_ORGANIZATION ( #193, #129 ) ;
#152 = APPROVAL_STATUS ( 'not_yet_approved' ) ;
#153 = AXIS2_PLACEMENT_3D ( 'NONE', #110, #132, #173 ) ;
#154 = FACE_BOUND ( 'NONE', #171, .T. ) ;
#155 = CC_DESIGN_DATE_AND_TIME_ASSIGNMENT ( #165, #80, ( #117 ) ) ;
#156 = CONICAL_SURFACE ( 'NONE', #57, 1.750000000000000444, 0.7853981633974476129 ) ;
#157 = EDGE_LOOP ( 'NONE', ( #1 ) ) ;
#158 = CARTESIAN_POINT ( 'NONE',  ( 2.859289381878350072E-15, 2.249999999999993339, 0.8189330270989638727 ) ) ;
#159 = FACE_OUTER_BOUND ( 'NONE', #157, .T. ) ;
#160 = CC_DESIGN_PERSON_AND_ORGANIZATION_ASSIGNMENT ( #100, #53, ( #17 ) ) ;
#161 = VERTEX_POINT ( 'NONE', #76 ) ;
#162 = ADVANCED_FACE ( 'NONE', ( #32 ), #70, .T. ) ;
#163 = PERSON_AND_ORGANIZATION_ROLE ( 'creator' ) ;
#164 = CC_DESIGN_APPROVAL ( #125, ( #117 ) ) ;
#165 = DATE_AND_TIME ( #10, #27 ) ;
#166 = PERSON_AND_ORGANIZATION ( #193, #129 ) ;
#167 = ADVANCED_FACE ( 'NONE', ( #148 ), #189, .F. ) ;
#168 = DIRECTION ( 'NONE',  ( 1.000000000000000000, 0.0000000000000000000, 0.0000000000000000000 ) ) ;
#169 = DIRECTION ( 'NONE',  ( -3.491481338843133355E-15, 1.224646799147353207E-16, -1.000000000000000000 ) ) ;
#170 = CIRCLE ( 'NONE', #196, 2.249999999999996447 ) ;
#171 = EDGE_LOOP ( 'NONE', ( #55 ) ) ;
#172 = DIRECTION ( 'NONE',  ( -3.491481338843133355E-15, 1.224646799147353207E-16, -1.000000000000000000 ) ) ;
#173 = DIRECTION ( 'NONE',  ( 0.0000000000000000000, 1.000000000000000000, 0.0000000000000000000 ) ) ;
#174 = ADVANCED_FACE ( 'NONE', ( #159 ), #16, .F. ) ;
#175 = DIRECTION ( 'NONE',  ( -3.491481338843133355E-15, 1.224646799147353207E-16, -1.000000000000000000 ) ) ;
#176 = PRODUCT_RELATED_PRODUCT_CATEGORY ( 'detail', '', ( #104 ) ) ;
#177 = CYLINDRICAL_SURFACE ( 'NONE', #54, 2.249999999999995115 ) ;
#178 = CARTESIAN_POINT ( 'NONE',  ( 2.025059176529017346E-13, -7.102951435054648059E-15, 58.00000000000000000 ) ) ;
#179 = PRODUCT_DEFINITION_SHAPE ( 'NONE', 'NONE',  #130 ) ;
#180 = AXIS2_PLACEMENT_3D ( 'NONE', #182, #137, #168 ) ;
#181 = CARTESIAN_POINT ( 'NONE',  ( 2.025059176529017346E-13, 1.312289809829115007E-32, 58.00000000000000000 ) ) ;
#182 = CARTESIAN_POINT ( 'NONE',  ( 0.0000000000000000000, 0.0000000000000000000, 0.0000000000000000000 ) ) ;
#183 = DATE_AND_TIME ( #23, #203 ) ;
#184 = CC_DESIGN_PERSON_AND_ORGANIZATION_ASSIGNMENT ( #66, #71, ( #130 ) ) ;
#185 = MECHANICAL_CONTEXT ( 'NONE', #112, 'mechanical' ) ;
#186 = CALENDAR_DATE ( 2021, 15, 10 ) ;
#187 = CYLINDRICAL_SURFACE ( 'NONE', #88, 2.249999999999998668 ) ;
#188 = ORIENTED_EDGE ( 'NONE', *, *, #142, .F. ) ;
#189 = PLANE ( 'NONE',  #106 ) ;
#190 = DIRECTION ( 'NONE',  ( -4.275831445896958607E-31, -1.000000000000000000, -1.224646799147353207E-16 ) ) ;
#191 = APPROVAL_PERSON_ORGANIZATION ( #81, #59, #50 ) ;
#192 = DIRECTION ( 'NONE',  ( 0.0000000000000000000, 1.000000000000000000, 0.0000000000000000000 ) ) ;
#193 = PERSON ( 'UNSPECIFIED', 'UNSPECIFIED', 'UNSPECIFIED', ('UNSPECIFIED'), ('UNSPECIFIED'), ('UNSPECIFIED') ) ;
#194 = CARTESIAN_POINT ( 'NONE',  ( 8.379555213223520053E-14, 1.687229755494582693E-32, 24.00000000000000000 ) ) ;
#195 =( NAMED_UNIT ( * ) PLANE_ANGLE_UNIT ( ) SI_UNIT ( $, .RADIAN. ) );
#196 = AXIS2_PLACEMENT_3D ( 'NONE', #31, #111, #47 ) ;
#197 = APPLICATION_PROTOCOL_DEFINITION ( 'international standard', 'config_control_design', 1994, #22 ) ;
#198 = APPROVAL_STATUS ( 'not_yet_approved' ) ;
#199 = ADVANCED_FACE ( 'NONE', ( #43, #135 ), #177, .T. ) ;
#200 = ADVANCED_BREP_SHAPE_REPRESENTATION ( '29112', ( #29, #25, #180 ), #144 ) ;
#201 = CC_DESIGN_APPROVAL ( #107, ( #130 ) ) ;
#202 = EDGE_LOOP ( 'NONE', ( #188 ) ) ;
#203 = LOCAL_TIME ( 15, 34, 6.000000000000000000, #119 ) ;
ENDSEC;
END-ISO-10303-21;
