ISO-10303-21;
HEADER;
FILE_DESCRIPTION (( 'STEP AP203' ),
    '1' );
FILE_NAME ('29111.step',
    '2021-10-15T13:34:06',
    ( '' ),
    ( '' ),
    'SwSTEP 2.0',
    'SolidWorks 2019',
    '' );
FILE_SCHEMA (( 'CONFIG_CONTROL_DESIGN' ));
ENDSEC;

DATA;
#1 = SECURITY_CLASSIFICATION ( '', '', #148 ) ;
#2 = FACE_OUTER_BOUND ( 'NONE', #187, .T. ) ;
#3 = CARTESIAN_POINT ( 'NONE',  ( 0.0000000000000000000, 0.0000000000000000000, 0.0000000000000000000 ) ) ;
#4 = ORIENTED_EDGE ( 'NONE', *, *, #120, .F. ) ;
#5 = ADVANCED_FACE ( 'NONE', ( #2, #139 ), #123, .T. ) ;
#6 = DIRECTION ( 'NONE',  ( -3.491481338843133355E-15, 1.224646799147353207E-16, -1.000000000000000000 ) ) ;
#7 = CLOSED_SHELL ( 'NONE', ( #112, #32, #178, #79 ) ) ;
#8 = DIRECTION ( 'NONE',  ( 0.0000000000000000000, 1.000000000000000000, 0.0000000000000000000 ) ) ;
#9 = SHAPE_DEFINITION_REPRESENTATION ( #109, #189 ) ;
#10 = APPLICATION_PROTOCOL_DEFINITION ( 'international standard', 'config_control_design', 1994, #95 ) ;
#11 = AXIS2_PLACEMENT_3D ( 'NONE', #173, #70, #196 ) ;
#12 = CC_DESIGN_APPROVAL ( #104, ( #90 ) ) ;
#13 = CARTESIAN_POINT ( 'NONE',  ( 0.0000000000000000000, 0.0000000000000000000, 0.0000000000000000000 ) ) ;
#14 = EDGE_LOOP ( 'NONE', ( #49 ) ) ;
#15 = ORIENTED_EDGE ( 'NONE', *, *, #80, .F. ) ;
#16 = MANIFOLD_SOLID_BREP ( 'Corps-Déplacer/Copier1[1]', #7 ) ;
#17 = EDGE_LOOP ( 'NONE', ( #96 ) ) ;
#18 = CC_DESIGN_PERSON_AND_ORGANIZATION_ASSIGNMENT ( #88, #199, ( #93 ) ) ;
#19 = CARTESIAN_POINT ( 'NONE',  ( 7.681258945454893382E-14, -2.694222958124176809E-15, 22.00000000000000000 ) ) ;
#20 = DIRECTION ( 'NONE',  ( -3.491481338843133355E-15, 1.224646799147353207E-16, -1.000000000000000000 ) ) ;
#21 = MANIFOLD_SOLID_BREP ( 'Corps-Déplacer/Copier1[2]', #31 ) ;
#22 = DIRECTION ( 'NONE',  ( -3.491481338843133355E-15, 1.224646799147353207E-16, -1.000000000000000000 ) ) ;
#23 = DIRECTION ( 'NONE',  ( 4.275831445896958607E-31, 1.000000000000000000, 1.224646799147353207E-16 ) ) ;
#24 = CARTESIAN_POINT ( 'NONE',  ( 7.681258945454893382E-14, 2.099999999999993872, 22.00000000000000000 ) ) ;
#25 = PERSON_AND_ORGANIZATION_ROLE ( 'design_supplier' ) ;
#26 = EDGE_CURVE ( 'NONE', #113, #113, #190, .T. ) ;
#27 = APPROVAL_DATE_TIME ( #28, #58 ) ;
#28 = DATE_AND_TIME ( #163, #135 ) ;
#29 = ADVANCED_FACE ( 'NONE', ( #124 ), #174, .T. ) ;
#30 = COORDINATED_UNIVERSAL_TIME_OFFSET ( 1, 0, .AHEAD. ) ;
#31 = CLOSED_SHELL ( 'NONE', ( #29, #5, #36 ) ) ;
#32 = ADVANCED_FACE ( 'NONE', ( #41, #155 ), #127, .T. ) ;
#33 = DIRECTION ( 'NONE',  ( 0.0000000000000000000, 1.000000000000000000, 0.0000000000000000000 ) ) ;
#34 = CIRCLE ( 'NONE', #161, 2.099999999999993872 ) ;
#35 = APPROVAL_PERSON_ORGANIZATION ( #182, #58, #108 ) ;
#36 = ADVANCED_FACE ( 'NONE', ( #130 ), #143, .T. ) ;
#37 = CARTESIAN_POINT ( 'NONE',  ( 1.902857329669507616E-13, 2.099999999999993872, 54.50000000000000000 ) ) ;
#38 = CARTESIAN_POINT ( 'NONE',  ( 7.681258945454893382E-14, 1.574747771794943920E-32, 22.00000000000000000 ) ) ;
#39 = CC_DESIGN_APPROVAL ( #58, ( #93 ) ) ;
#40 = DIRECTION ( 'NONE',  ( 0.0000000000000000000, 1.000000000000000000, 0.0000000000000000000 ) ) ;
#41 = FACE_OUTER_BOUND ( 'NONE', #151, .T. ) ;
#42 = DATE_TIME_ROLE ( 'classification_date' ) ;
#43 = COORDINATED_UNIVERSAL_TIME_OFFSET ( 1, 0, .AHEAD. ) ;
#44 = PERSON_AND_ORGANIZATION ( #106, #203 ) ;
#45 = PERSON_AND_ORGANIZATION ( #106, #203 ) ;
#46 = DATE_AND_TIME ( #186, #85 ) ;
#47 = AXIS2_PLACEMENT_3D ( 'NONE', #145, #195, #8 ) ;
#48 = CC_DESIGN_DATE_AND_TIME_ASSIGNMENT ( #200, #92, ( #93 ) ) ;
#49 = ORIENTED_EDGE ( 'NONE', *, *, #26, .T. ) ;
#50 = ORIENTED_EDGE ( 'NONE', *, *, #26, .F. ) ;
#51 = CC_DESIGN_SECURITY_CLASSIFICATION ( #1, ( #90 ) ) ;
#52 = EDGE_LOOP ( 'NONE', ( #140 ) ) ;
#53 = FACE_BOUND ( 'NONE', #14, .T. ) ;
#54 = VERTEX_POINT ( 'NONE', #176 ) ;
#55 = AXIS2_PLACEMENT_3D ( 'NONE', #100, #20, #156 ) ;
#56 = PLANE ( 'NONE',  #197 ) ;
#57 = DIRECTION ( 'NONE',  ( 3.491481338843133355E-15, -1.224646799147353207E-16, 1.000000000000000000 ) ) ;
#58 = APPROVAL ( #87, 'UNSPECIFIED' ) ;
#59 = DIRECTION ( 'NONE',  ( -4.275831445896958607E-31, -1.000000000000000000, -1.224646799147353207E-16 ) ) ;
#60 = APPROVAL_PERSON_ORGANIZATION ( #117, #104, #118 ) ;
#61 = PERSON_AND_ORGANIZATION ( #106, #203 ) ;
#62 = DATE_AND_TIME ( #63, #67 ) ;
#63 = CALENDAR_DATE ( 2021, 15, 10 ) ;
#64 = UNCERTAINTY_MEASURE_WITH_UNIT (LENGTH_MEASURE( 1.000000000000000082E-05 ), #99, 'distance_accuracy_value', 'NONE');
#65 = DIRECTION ( 'NONE',  ( -3.491481338843133355E-15, 1.224646799147353207E-16, -1.000000000000000000 ) ) ;
#66 = AXIS2_PLACEMENT_3D ( 'NONE', #115, #22, #114 ) ;
#67 = LOCAL_TIME ( 15, 34, 6.000000000000000000, #181 ) ;
#68 = APPROVAL ( #202, 'UNSPECIFIED' ) ;
#69 = CARTESIAN_POINT ( 'NONE',  ( 2.668670089753126392E-15, -9.360434629959452782E-17, 0.7643374919590327776 ) ) ;
#70 = DIRECTION ( 'NONE',  ( 3.491481338843133355E-15, -1.224646799147353207E-16, 1.000000000000000000 ) ) ;
#71 = DIRECTION ( 'NONE',  ( -3.491481338843133355E-15, 1.224646799147353207E-16, -1.000000000000000000 ) ) ;
#72 = APPROVAL_DATE_TIME ( #62, #104 ) ;
#73 = APPLICATION_CONTEXT ( 'configuration controlled 3d designs of mechanical parts and assemblies' ) ;
#74 = COORDINATED_UNIVERSAL_TIME_OFFSET ( 1, 0, .AHEAD. ) ;
#75 = APPROVAL_STATUS ( 'not_yet_approved' ) ;
#76 = CC_DESIGN_PERSON_AND_ORGANIZATION_ASSIGNMENT ( #133, #25, ( #90 ) ) ;
#77 = EDGE_LOOP ( 'NONE', ( #166 ) ) ;
#78 = ORIENTED_EDGE ( 'NONE', *, *, #157, .T. ) ;
#79 = ADVANCED_FACE ( 'NONE', ( #194 ), #56, .F. ) ;
#80 = EDGE_CURVE ( 'NONE', #128, #128, #150, .T. ) ;
#81 = VERTEX_POINT ( 'NONE', #158 ) ;
#82 =( NAMED_UNIT ( * ) PLANE_ANGLE_UNIT ( ) SI_UNIT ( $, .RADIAN. ) );
#83 = AXIS2_PLACEMENT_3D ( 'NONE', #179, #57, #59 ) ;
#84 = DIRECTION ( 'NONE',  ( 3.668437989309031286E-31, 1.000000000000000000, 1.032573497605245306E-16 ) ) ;
#85 = LOCAL_TIME ( 15, 34, 6.000000000000000000, #43 ) ;
#86 = CC_DESIGN_APPROVAL ( #68, ( #1 ) ) ;
#87 = APPROVAL_STATUS ( 'not_yet_approved' ) ;
#88 = PERSON_AND_ORGANIZATION ( #106, #203 ) ;
#89 = AXIS2_PLACEMENT_3D ( 'NONE', #38, #193, #141 ) ;
#90 = PRODUCT_DEFINITION_FORMATION_WITH_SPECIFIED_SOURCE ( 'ANY', '', #171, .NOT_KNOWN. ) ;
#91 = CALENDAR_DATE ( 2021, 15, 10 ) ;
#92 = DATE_TIME_ROLE ( 'creation_date' ) ;
#93 = PRODUCT_DEFINITION ( 'UNKNOWN', '', #90, #183 ) ;
#94 = APPROVAL_DATE_TIME ( #46, #68 ) ;
#95 = APPLICATION_CONTEXT ( 'configuration controlled 3d designs of mechanical parts and assemblies' ) ;
#96 = ORIENTED_EDGE ( 'NONE', *, *, #120, .T. ) ;
#97 =( NAMED_UNIT ( * ) SI_UNIT ( $, .STERADIAN. ) SOLID_ANGLE_UNIT ( ) );
#98 = CARTESIAN_POINT ( 'NONE',  ( 1.920314736363723472E-13, 1.199807826129476507E-32, 55.00000000000000000 ) ) ;
#99 =( LENGTH_UNIT ( ) NAMED_UNIT ( * ) SI_UNIT ( .MILLI., .METRE. ) );
#100 = CARTESIAN_POINT ( 'NONE',  ( 7.681258945454893382E-14, -2.694222958124176809E-15, 22.00000000000000000 ) ) ;
#101 = AXIS2_PLACEMENT_3D ( 'NONE', #153, #65, #33 ) ;
#102 = FACE_OUTER_BOUND ( 'NONE', #138, .T. ) ;
#103 = APPROVAL_ROLE ( '' ) ;
#104 = APPROVAL ( #75, 'UNSPECIFIED' ) ;
#105 = APPLICATION_PROTOCOL_DEFINITION ( 'international standard', 'config_control_design', 1994, #73 ) ;
#106 = PERSON ( 'UNSPECIFIED', 'UNSPECIFIED', 'UNSPECIFIED', ('UNSPECIFIED'), ('UNSPECIFIED'), ('UNSPECIFIED') ) ;
#107 = CIRCLE ( 'NONE', #55, 2.099999999999996536 ) ;
#108 = APPROVAL_ROLE ( '' ) ;
#109 = PRODUCT_DEFINITION_SHAPE ( 'NONE', 'NONE',  #93 ) ;
#110 = DIRECTION ( 'NONE',  ( 4.275831445896958607E-31, 1.000000000000000000, 1.224646799147352961E-16 ) ) ;
#111 = EDGE_LOOP ( 'NONE', ( #50 ) ) ;
#112 = ADVANCED_FACE ( 'NONE', ( #177 ), #154, .F. ) ;
#113 = VERTEX_POINT ( 'NONE', #116 ) ;
#114 = DIRECTION ( 'NONE',  ( 0.0000000000000000000, 1.000000000000000000, 0.0000000000000000000 ) ) ;
#115 = CARTESIAN_POINT ( 'NONE',  ( 1.902857329669507616E-13, -6.674325055353075041E-15, 54.50000000000000000 ) ) ;
#116 = CARTESIAN_POINT ( 'NONE',  ( 1.920314736363723472E-13, 1.599999999999993872, 55.00000000000000000 ) ) ;
#117 = PERSON_AND_ORGANIZATION ( #106, #203 ) ;
#118 = APPROVAL_ROLE ( '' ) ;
#119 = DIRECTION ( 'NONE',  ( 0.0000000000000000000, 0.0000000000000000000, 1.000000000000000000 ) ) ;
#120 = EDGE_CURVE ( 'NONE', #81, #81, #201, .T. ) ;
#121 = ORIENTED_EDGE ( 'NONE', *, *, #169, .F. ) ;
#122 = LOCAL_TIME ( 15, 34, 6.000000000000000000, #30 ) ;
#123 = CYLINDRICAL_SURFACE ( 'NONE', #167, 2.099999999999995204 ) ;
#124 = FACE_OUTER_BOUND ( 'NONE', #170, .T. ) ;
#125 = EDGE_LOOP ( 'NONE', ( #78 ) ) ;
#126 = CC_DESIGN_PERSON_AND_ORGANIZATION_ASSIGNMENT ( #61, #134, ( #171 ) ) ;
#127 = CYLINDRICAL_SURFACE ( 'NONE', #164, 2.099999999999998757 ) ;
#128 = VERTEX_POINT ( 'NONE', #37 ) ;
#129 = DIRECTION ( 'NONE',  ( 4.275831445896958607E-31, 1.000000000000000000, 1.224646799147353207E-16 ) ) ;
#130 = FACE_OUTER_BOUND ( 'NONE', #52, .T. ) ;
#131 = PERSON_AND_ORGANIZATION_ROLE ( 'classification_officer' ) ;
#132 = CC_DESIGN_PERSON_AND_ORGANIZATION_ASSIGNMENT ( #44, #131, ( #1 ) ) ;
#133 = PERSON_AND_ORGANIZATION ( #106, #203 ) ;
#134 = PERSON_AND_ORGANIZATION_ROLE ( 'design_owner' ) ;
#135 = LOCAL_TIME ( 15, 34, 6.000000000000000000, #74 ) ;
#136 = CC_DESIGN_DATE_AND_TIME_ASSIGNMENT ( #149, #42, ( #1 ) ) ;
#137 = ORIENTED_EDGE ( 'NONE', *, *, #169, .T. ) ;
#138 = EDGE_LOOP ( 'NONE', ( #15 ) ) ;
#139 = FACE_OUTER_BOUND ( 'NONE', #125, .T. ) ;
#140 = ORIENTED_EDGE ( 'NONE', *, *, #157, .F. ) ;
#141 = DIRECTION ( 'NONE',  ( -4.275831445896958607E-31, -1.000000000000000000, -1.224646799147353207E-16 ) ) ;
#142 = DIRECTION ( 'NONE',  ( -3.491481338843133355E-15, 1.224646799147353207E-16, -1.000000000000000000 ) ) ;
#143 = PLANE ( 'NONE',  #89 ) ;
#144 = CONICAL_SURFACE ( 'NONE', #47, 1.600000000000000533, 0.7853981633974476129 ) ;
#145 = CARTESIAN_POINT ( 'NONE',  ( 1.920314736363723472E-13, -6.735557395310442615E-15, 55.00000000000000000 ) ) ;
#146 = VERTEX_POINT ( 'NONE', #24 ) ;
#147 = PERSON_AND_ORGANIZATION ( #106, #203 ) ;
#148 = SECURITY_CLASSIFICATION_LEVEL ( 'unclassified' ) ;
#149 = DATE_AND_TIME ( #162, #122 ) ;
#150 = CIRCLE ( 'NONE', #66, 2.100000000000000089 ) ;
#151 = EDGE_LOOP ( 'NONE', ( #4 ) ) ;
#152 = AXIS2_PLACEMENT_3D ( 'NONE', #19, #6, #40 ) ;
#153 = CARTESIAN_POINT ( 'NONE',  ( 1.920314736363723472E-13, -6.735557395310442615E-15, 55.00000000000000000 ) ) ;
#154 = PLANE ( 'NONE',  #83 ) ;
#155 = FACE_OUTER_BOUND ( 'NONE', #77, .T. ) ;
#156 = DIRECTION ( 'NONE',  ( 0.0000000000000000000, 1.000000000000000000, 0.0000000000000000000 ) ) ;
#157 = EDGE_CURVE ( 'NONE', #146, #146, #107, .T. ) ;
#158 = CARTESIAN_POINT ( 'NONE',  ( 7.681258945454893382E-14, 2.099999999999993872, 22.00000000000000000 ) ) ;
#159 = COORDINATED_UNIVERSAL_TIME_OFFSET ( 1, 0, .AHEAD. ) ;
#160 = DIRECTION ( 'NONE',  ( 1.000000000000000000, 0.0000000000000000000, 0.0000000000000000000 ) ) ;
#161 = AXIS2_PLACEMENT_3D ( 'NONE', #69, #172, #84 ) ;
#162 = CALENDAR_DATE ( 2021, 15, 10 ) ;
#163 = CALENDAR_DATE ( 2021, 15, 10 ) ;
#164 = AXIS2_PLACEMENT_3D ( 'NONE', #192, #71, #129 ) ;
#165 = APPROVAL_PERSON_ORGANIZATION ( #147, #68, #103 ) ;
#166 = ORIENTED_EDGE ( 'NONE', *, *, #80, .T. ) ;
#167 = AXIS2_PLACEMENT_3D ( 'NONE', #3, #188, #110 ) ;
#168 = AXIS2_PLACEMENT_3D ( 'NONE', #13, #119, #160 ) ;
#169 = EDGE_CURVE ( 'NONE', #54, #54, #34, .T. ) ;
#170 = EDGE_LOOP ( 'NONE', ( #137 ) ) ;
#171 = PRODUCT ( '29111', '29111', '', ( #185 ) ) ;
#172 = DIRECTION ( 'NONE',  ( -3.491481338843133355E-15, 1.224646799147353207E-16, -1.000000000000000000 ) ) ;
#173 = CARTESIAN_POINT ( 'NONE',  ( 2.668670089753126392E-15, -9.360434629959452782E-17, 0.7643374919590327776 ) ) ;
#174 = CONICAL_SURFACE ( 'NONE', #11, 2.099999999999993872, 1.221730476396026388 ) ;
#175 = LOCAL_TIME ( 15, 34, 6.000000000000000000, #159 ) ;
#176 = CARTESIAN_POINT ( 'NONE',  ( 2.668670089753127181E-15, 2.099999999999993872, 0.7643374919590329997 ) ) ;
#177 = FACE_OUTER_BOUND ( 'NONE', #17, .T. ) ;
#178 = ADVANCED_FACE ( 'NONE', ( #102, #53 ), #144, .T. ) ;
#179 = CARTESIAN_POINT ( 'NONE',  ( 7.681258945454893382E-14, 1.574747771794943920E-32, 22.00000000000000000 ) ) ;
#180 =( GEOMETRIC_REPRESENTATION_CONTEXT ( 3 ) GLOBAL_UNCERTAINTY_ASSIGNED_CONTEXT ( ( #64 ) ) GLOBAL_UNIT_ASSIGNED_CONTEXT ( ( #99, #82, #97 ) ) REPRESENTATION_CONTEXT ( 'NONE', 'WORKASPACE' ) );
#181 = COORDINATED_UNIVERSAL_TIME_OFFSET ( 1, 0, .AHEAD. ) ;
#182 = PERSON_AND_ORGANIZATION ( #106, #203 ) ;
#183 = DESIGN_CONTEXT ( 'detailed design', #95, 'design' ) ;
#184 = PERSON_AND_ORGANIZATION_ROLE ( 'creator' ) ;
#185 = MECHANICAL_CONTEXT ( 'NONE', #73, 'mechanical' ) ;
#186 = CALENDAR_DATE ( 2021, 15, 10 ) ;
#187 = EDGE_LOOP ( 'NONE', ( #121 ) ) ;
#188 = DIRECTION ( 'NONE',  ( -3.491481338843133355E-15, 1.224646799147353207E-16, -1.000000000000000000 ) ) ;
#189 = ADVANCED_BREP_SHAPE_REPRESENTATION ( '29111', ( #16, #21, #168 ), #180 ) ;
#190 = CIRCLE ( 'NONE', #101, 1.600000000000000533 ) ;
#191 = PRODUCT_RELATED_PRODUCT_CATEGORY ( 'detail', '', ( #171 ) ) ;
#192 = CARTESIAN_POINT ( 'NONE',  ( 0.0000000000000000000, 0.0000000000000000000, 0.0000000000000000000 ) ) ;
#193 = DIRECTION ( 'NONE',  ( 3.491481338843133355E-15, -1.224646799147353207E-16, 1.000000000000000000 ) ) ;
#194 = FACE_OUTER_BOUND ( 'NONE', #111, .T. ) ;
#195 = DIRECTION ( 'NONE',  ( -3.491481338843133355E-15, 1.224646799147353207E-16, -1.000000000000000000 ) ) ;
#196 = DIRECTION ( 'NONE',  ( -3.668437989309031286E-31, -1.000000000000000000, -1.032573497605245306E-16 ) ) ;
#197 = AXIS2_PLACEMENT_3D ( 'NONE', #98, #142, #23 ) ;
#198 = CC_DESIGN_PERSON_AND_ORGANIZATION_ASSIGNMENT ( #45, #184, ( #90 ) ) ;
#199 = PERSON_AND_ORGANIZATION_ROLE ( 'creator' ) ;
#200 = DATE_AND_TIME ( #91, #175 ) ;
#201 = CIRCLE ( 'NONE', #152, 2.099999999999996536 ) ;
#202 = APPROVAL_STATUS ( 'not_yet_approved' ) ;
#203 = ORGANIZATION ( 'UNSPECIFIED', 'UNSPECIFIED', '' ) ;
ENDSEC;
END-ISO-10303-21;
