ISO-10303-21;
HEADER;
FILE_DESCRIPTION (( 'STEP AP203' ),
    '1' );
FILE_NAME ('29109.step',
    '2021-10-15T13:34:05',
    ( '' ),
    ( '' ),
    'SwSTEP 2.0',
    'SolidWorks 2019',
    '' );
FILE_SCHEMA (( 'CONFIG_CONTROL_DESIGN' ));
ENDSEC;

DATA;
#1 = ORIENTED_EDGE ( 'NONE', *, *, #172, .F. ) ;
#2 = DIRECTION ( 'NONE',  ( -4.275831445896958607E-31, -1.000000000000000000, -1.224646799147353207E-16 ) ) ;
#3 = AXIS2_PLACEMENT_3D ( 'NONE', #149, #20, #106 ) ;
#4 = APPLICATION_CONTEXT ( 'configuration controlled 3d designs of mechanical parts and assemblies' ) ;
#5 =( LENGTH_UNIT ( ) NAMED_UNIT ( * ) SI_UNIT ( .MILLI., .METRE. ) );
#6 = FACE_OUTER_BOUND ( 'NONE', #50, .T. ) ;
#7 = APPROVAL ( #125, 'UNSPECIFIED' ) ;
#8 = DIRECTION ( 'NONE',  ( -3.491481338843133355E-15, 1.224646799147353207E-16, -1.000000000000000000 ) ) ;
#9 =( GEOMETRIC_REPRESENTATION_CONTEXT ( 3 ) GLOBAL_UNCERTAINTY_ASSIGNED_CONTEXT ( ( #107 ) ) GLOBAL_UNIT_ASSIGNED_CONTEXT ( ( #5, #57, #54 ) ) REPRESENTATION_CONTEXT ( 'NONE', 'WORKASPACE' ) );
#10 = APPLICATION_PROTOCOL_DEFINITION ( 'international standard', 'config_control_design', 1994, #4 ) ;
#11 = PERSON_AND_ORGANIZATION ( #86, #134 ) ;
#12 = MECHANICAL_CONTEXT ( 'NONE', #4, 'mechanical' ) ;
#13 = ADVANCED_FACE ( 'NONE', ( #16 ), #84, .F. ) ;
#14 = APPROVAL_ROLE ( '' ) ;
#15 = ORIENTED_EDGE ( 'NONE', *, *, #102, .T. ) ;
#16 = FACE_OUTER_BOUND ( 'NONE', #143, .T. ) ;
#17 = ORIENTED_EDGE ( 'NONE', *, *, #132, .F. ) ;
#18 = AXIS2_PLACEMENT_3D ( 'NONE', #203, #78, #42 ) ;
#19 = CARTESIAN_POINT ( 'NONE',  ( 1.920314736363723472E-13, -6.735557395310442615E-15, 55.00000000000000000 ) ) ;
#20 = DIRECTION ( 'NONE',  ( -3.491481338843133355E-15, 1.224646799147353207E-16, -1.000000000000000000 ) ) ;
#21 = DIRECTION ( 'NONE',  ( -3.491481338843133355E-15, 1.224646799147353207E-16, -1.000000000000000000 ) ) ;
#22 = DESIGN_CONTEXT ( 'detailed design', #92, 'design' ) ;
#23 = DIRECTION ( 'NONE',  ( -4.275831445896958607E-31, -1.000000000000000000, -1.224646799147353207E-16 ) ) ;
#24 = FACE_OUTER_BOUND ( 'NONE', #175, .T. ) ;
#25 = CIRCLE ( 'NONE', #3, 1.899999999999993694 ) ;
#26 = PERSON_AND_ORGANIZATION ( #86, #134 ) ;
#27 = APPROVAL_DATE_TIME ( #98, #144 ) ;
#28 = DATE_AND_TIME ( #170, #31 ) ;
#29 = AXIS2_PLACEMENT_3D ( 'NONE', #195, #39, #129 ) ;
#30 = CIRCLE ( 'NONE', #148, 1.899999999999996358 ) ;
#31 = LOCAL_TIME ( 15, 34, 5.000000000000000000, #186 ) ;
#32 = MANIFOLD_SOLID_BREP ( 'Corps-Déplacer/Copier1[1]', #34 ) ;
#33 = DIRECTION ( 'NONE',  ( 4.275831445896958607E-31, 1.000000000000000000, 1.224646799147353207E-16 ) ) ;
#34 = CLOSED_SHELL ( 'NONE', ( #180, #150, #82, #13 ) ) ;
#35 = AXIS2_PLACEMENT_3D ( 'NONE', #194, #197, #23 ) ;
#36 = DIRECTION ( 'NONE',  ( 0.0000000000000000000, 1.000000000000000000, 0.0000000000000000000 ) ) ;
#37 = APPROVAL ( #201, 'UNSPECIFIED' ) ;
#38 = DIRECTION ( 'NONE',  ( -3.491481338843133355E-15, 1.224646799147353207E-16, -1.000000000000000000 ) ) ;
#39 = DIRECTION ( 'NONE',  ( -3.491481338843133355E-15, 1.224646799147353207E-16, -1.000000000000000000 ) ) ;
#40 = FACE_OUTER_BOUND ( 'NONE', #66, .T. ) ;
#41 = DATE_TIME_ROLE ( 'creation_date' ) ;
#42 = DIRECTION ( 'NONE',  ( 1.000000000000000000, 0.0000000000000000000, 0.0000000000000000000 ) ) ;
#43 = APPROVAL_ROLE ( '' ) ;
#44 = DATE_AND_TIME ( #45, #56 ) ;
#45 = CALENDAR_DATE ( 2021, 15, 10 ) ;
#46 = CC_DESIGN_APPROVAL ( #7, ( #126 ) ) ;
#47 = DIRECTION ( 'NONE',  ( -3.491481338843133355E-15, 1.224646799147353207E-16, -1.000000000000000000 ) ) ;
#48 = DIRECTION ( 'NONE',  ( -3.491481338843133355E-15, 1.224646799147353207E-16, -1.000000000000000000 ) ) ;
#49 = AXIS2_PLACEMENT_3D ( 'NONE', #130, #161, #182 ) ;
#50 = EDGE_LOOP ( 'NONE', ( #87 ) ) ;
#51 = ORIENTED_EDGE ( 'NONE', *, *, #172, .T. ) ;
#52 = EDGE_LOOP ( 'NONE', ( #17 ) ) ;
#53 = FACE_OUTER_BOUND ( 'NONE', #176, .T. ) ;
#54 =( NAMED_UNIT ( * ) SI_UNIT ( $, .STERADIAN. ) SOLID_ANGLE_UNIT ( ) );
#55 = CARTESIAN_POINT ( 'NONE',  ( 2.414511033586161354E-15, -8.468964665201408427E-17, 0.6915434451057913545 ) ) ;
#56 = LOCAL_TIME ( 15, 34, 5.000000000000000000, #139 ) ;
#57 =( NAMED_UNIT ( * ) PLANE_ANGLE_UNIT ( ) SI_UNIT ( $, .RADIAN. ) );
#58 = PERSON_AND_ORGANIZATION ( #86, #134 ) ;
#59 = SHAPE_DEFINITION_REPRESENTATION ( #83, #167 ) ;
#60 = DATE_TIME_ROLE ( 'classification_date' ) ;
#61 = DATE_AND_TIME ( #94, #171 ) ;
#62 = CC_DESIGN_PERSON_AND_ORGANIZATION_ASSIGNMENT ( #202, #184, ( #80 ) ) ;
#63 = PERSON_AND_ORGANIZATION ( #86, #134 ) ;
#64 = LOCAL_TIME ( 15, 34, 5.000000000000000000, #113 ) ;
#65 = ORIENTED_EDGE ( 'NONE', *, *, #157, .T. ) ;
#66 = EDGE_LOOP ( 'NONE', ( #99 ) ) ;
#67 = CC_DESIGN_DATE_AND_TIME_ASSIGNMENT ( #137, #60, ( #126 ) ) ;
#68 = CYLINDRICAL_SURFACE ( 'NONE', #49, 1.899999999999998579 ) ;
#69 = AXIS2_PLACEMENT_3D ( 'NONE', #174, #47, #141 ) ;
#70 = FACE_OUTER_BOUND ( 'NONE', #128, .T. ) ;
#71 = VERTEX_POINT ( 'NONE', #152 ) ;
#72 = VERTEX_POINT ( 'NONE', #133 ) ;
#73 = AXIS2_PLACEMENT_3D ( 'NONE', #55, #109, #147 ) ;
#74 = CARTESIAN_POINT ( 'NONE',  ( 7.681258945454893382E-14, 1.424771793528758159E-32, 22.00000000000000000 ) ) ;
#75 = EDGE_CURVE ( 'NONE', #72, #72, #115, .T. ) ;
#76 = COORDINATED_UNIVERSAL_TIME_OFFSET ( 1, 0, .AHEAD. ) ;
#77 = CALENDAR_DATE ( 2021, 15, 10 ) ;
#78 = DIRECTION ( 'NONE',  ( 0.0000000000000000000, 0.0000000000000000000, 1.000000000000000000 ) ) ;
#79 = PERSON_AND_ORGANIZATION_ROLE ( 'design_supplier' ) ;
#80 = PRODUCT ( '29109', '29109', '', ( #12 ) ) ;
#81 = LOCAL_TIME ( 15, 34, 5.000000000000000000, #166 ) ;
#82 = ADVANCED_FACE ( 'NONE', ( #104, #159 ), #118, .T. ) ;
#83 = PRODUCT_DEFINITION_SHAPE ( 'NONE', 'NONE',  #183 ) ;
#84 = PLANE ( 'NONE',  #177 ) ;
#85 = CLOSED_SHELL ( 'NONE', ( #188, #96, #116 ) ) ;
#86 = PERSON ( 'UNSPECIFIED', 'UNSPECIFIED', 'UNSPECIFIED', ('UNSPECIFIED'), ('UNSPECIFIED'), ('UNSPECIFIED') ) ;
#87 = ORIENTED_EDGE ( 'NONE', *, *, #102, .F. ) ;
#88 = CARTESIAN_POINT ( 'NONE',  ( 0.0000000000000000000, 0.0000000000000000000, 0.0000000000000000000 ) ) ;
#89 = DIRECTION ( 'NONE',  ( 4.275831445896957731E-31, 1.000000000000000000, 1.224646799147353207E-16 ) ) ;
#90 = APPROVAL_PERSON_ORGANIZATION ( #63, #37, #43 ) ;
#91 = CARTESIAN_POINT ( 'NONE',  ( 7.681258945454893382E-14, -2.694222958124176809E-15, 22.00000000000000000 ) ) ;
#92 = APPLICATION_CONTEXT ( 'configuration controlled 3d designs of mechanical parts and assemblies' ) ;
#93 = DIRECTION ( 'NONE',  ( 0.0000000000000000000, 1.000000000000000000, 0.0000000000000000000 ) ) ;
#94 = CALENDAR_DATE ( 2021, 15, 10 ) ;
#95 = APPROVAL_ROLE ( '' ) ;
#96 = ADVANCED_FACE ( 'NONE', ( #6, #53 ), #164, .T. ) ;
#97 = APPROVAL_PERSON_ORGANIZATION ( #112, #144, #95 ) ;
#98 = DATE_AND_TIME ( #168, #81 ) ;
#99 = ORIENTED_EDGE ( 'NONE', *, *, #132, .T. ) ;
#100 = PRODUCT_DEFINITION_FORMATION_WITH_SPECIFIED_SOURCE ( 'ANY', '', #80, .NOT_KNOWN. ) ;
#101 = ORIENTED_EDGE ( 'NONE', *, *, #75, .T. ) ;
#102 = EDGE_CURVE ( 'NONE', #122, #122, #25, .T. ) ;
#103 = MANIFOLD_SOLID_BREP ( 'Corps-Déplacer/Copier1[2]', #85 ) ;
#104 = FACE_OUTER_BOUND ( 'NONE', #178, .T. ) ;
#105 = PLANE ( 'NONE',  #35 ) ;
#106 = DIRECTION ( 'NONE',  ( 4.054589356604720703E-31, 1.000000000000000000, 1.141265444721587455E-16 ) ) ;
#107 = UNCERTAINTY_MEASURE_WITH_UNIT (LENGTH_MEASURE( 1.000000000000000082E-05 ), #5, 'distance_accuracy_value', 'NONE');
#108 = CARTESIAN_POINT ( 'NONE',  ( 7.681258945454893382E-14, 1.899999999999993694, 22.00000000000000000 ) ) ;
#109 = DIRECTION ( 'NONE',  ( 3.491481338843133355E-15, -1.224646799147353207E-16, 1.000000000000000000 ) ) ;
#110 = PRODUCT_RELATED_PRODUCT_CATEGORY ( 'detail', '', ( #80 ) ) ;
#111 = PERSON_AND_ORGANIZATION ( #86, #134 ) ;
#112 = PERSON_AND_ORGANIZATION ( #86, #134 ) ;
#113 = COORDINATED_UNIVERSAL_TIME_OFFSET ( 1, 0, .AHEAD. ) ;
#114 = CC_DESIGN_PERSON_AND_ORGANIZATION_ASSIGNMENT ( #11, #198, ( #126 ) ) ;
#115 = CIRCLE ( 'NONE', #69, 1.500000000000000444 ) ;
#116 = ADVANCED_FACE ( 'NONE', ( #24 ), #146, .T. ) ;
#117 = CARTESIAN_POINT ( 'NONE',  ( 1.920314736363723472E-13, 1.124819836996383627E-32, 55.00000000000000000 ) ) ;
#118 = CONICAL_SURFACE ( 'NONE', #196, 1.500000000000000444, 0.7853981633974512766 ) ;
#119 = VERTEX_POINT ( 'NONE', #108 ) ;
#120 = DIRECTION ( 'NONE',  ( 3.491481338843133355E-15, -1.224646799147353207E-16, 1.000000000000000000 ) ) ;
#121 = CC_DESIGN_PERSON_AND_ORGANIZATION_ASSIGNMENT ( #153, #79, ( #100 ) ) ;
#122 = VERTEX_POINT ( 'NONE', #160 ) ;
#123 = APPROVAL_STATUS ( 'not_yet_approved' ) ;
#124 = AXIS2_PLACEMENT_3D ( 'NONE', #74, #120, #2 ) ;
#125 = APPROVAL_STATUS ( 'not_yet_approved' ) ;
#126 = SECURITY_CLASSIFICATION ( '', '', #187 ) ;
#127 = ORIENTED_EDGE ( 'NONE', *, *, #157, .F. ) ;
#128 = EDGE_LOOP ( 'NONE', ( #51 ) ) ;
#129 = DIRECTION ( 'NONE',  ( 0.0000000000000000000, 1.000000000000000000, 0.0000000000000000000 ) ) ;
#130 = CARTESIAN_POINT ( 'NONE',  ( 0.0000000000000000000, 0.0000000000000000000, 0.0000000000000000000 ) ) ;
#131 = VERTEX_POINT ( 'NONE', #151 ) ;
#132 = EDGE_CURVE ( 'NONE', #119, #119, #30, .T. ) ;
#133 = CARTESIAN_POINT ( 'NONE',  ( 1.920314736363723472E-13, 1.499999999999993783, 55.00000000000000000 ) ) ;
#134 = ORGANIZATION ( 'UNSPECIFIED', 'UNSPECIFIED', '' ) ;
#135 = CARTESIAN_POINT ( 'NONE',  ( 7.681258945454893382E-14, -2.694222958124176809E-15, 22.00000000000000000 ) ) ;
#136 = APPROVAL_DATE_TIME ( #61, #37 ) ;
#137 = DATE_AND_TIME ( #77, #64 ) ;
#138 = CC_DESIGN_SECURITY_CLASSIFICATION ( #126, ( #100 ) ) ;
#139 = COORDINATED_UNIVERSAL_TIME_OFFSET ( 1, 0, .AHEAD. ) ;
#140 = EDGE_LOOP ( 'NONE', ( #101 ) ) ;
#141 = DIRECTION ( 'NONE',  ( 0.0000000000000000000, 1.000000000000000000, 0.0000000000000000000 ) ) ;
#142 = CONICAL_SURFACE ( 'NONE', #73, 1.899999999999993694, 1.221730476396026388 ) ;
#143 = EDGE_LOOP ( 'NONE', ( #192 ) ) ;
#144 = APPROVAL ( #123, 'UNSPECIFIED' ) ;
#145 = DIRECTION ( 'NONE',  ( -3.491481338843133355E-15, 1.224646799147353207E-16, -1.000000000000000000 ) ) ;
#146 = PLANE ( 'NONE',  #124 ) ;
#147 = DIRECTION ( 'NONE',  ( -4.054589356604720703E-31, -1.000000000000000000, -1.141265444721587455E-16 ) ) ;
#148 = AXIS2_PLACEMENT_3D ( 'NONE', #91, #38, #93 ) ;
#149 = CARTESIAN_POINT ( 'NONE',  ( 2.414511033586161354E-15, -8.468964665201408427E-17, 0.6915434451057913545 ) ) ;
#150 = ADVANCED_FACE ( 'NONE', ( #181, #70 ), #68, .T. ) ;
#151 = CARTESIAN_POINT ( 'NONE',  ( 1.906348811008350938E-13, 1.899999999999993694, 54.60000000000000142 ) ) ;
#152 = CARTESIAN_POINT ( 'NONE',  ( 7.681258945454893382E-14, 1.899999999999993694, 22.00000000000000000 ) ) ;
#153 = PERSON_AND_ORGANIZATION ( #86, #134 ) ;
#154 = PERSON_AND_ORGANIZATION_ROLE ( 'creator' ) ;
#155 = APPLICATION_PROTOCOL_DEFINITION ( 'international standard', 'config_control_design', 1994, #92 ) ;
#156 = CC_DESIGN_APPROVAL ( #37, ( #100 ) ) ;
#157 = EDGE_CURVE ( 'NONE', #71, #71, #200, .T. ) ;
#158 = APPROVAL_PERSON_ORGANIZATION ( #58, #7, #14 ) ;
#159 = FACE_BOUND ( 'NONE', #140, .T. ) ;
#160 = CARTESIAN_POINT ( 'NONE',  ( 2.414511033586162143E-15, 1.899999999999993694, 0.6915434451057915766 ) ) ;
#161 = DIRECTION ( 'NONE',  ( -3.491481338843133355E-15, 1.224646799147353207E-16, -1.000000000000000000 ) ) ;
#162 = FACE_OUTER_BOUND ( 'NONE', #173, .T. ) ;
#163 = AXIS2_PLACEMENT_3D ( 'NONE', #135, #21, #179 ) ;
#164 = CYLINDRICAL_SURFACE ( 'NONE', #185, 1.899999999999995026 ) ;
#165 = CC_DESIGN_PERSON_AND_ORGANIZATION_ASSIGNMENT ( #111, #169, ( #183 ) ) ;
#166 = COORDINATED_UNIVERSAL_TIME_OFFSET ( 1, 0, .AHEAD. ) ;
#167 = ADVANCED_BREP_SHAPE_REPRESENTATION ( '29109', ( #32, #103, #18 ), #9 ) ;
#168 = CALENDAR_DATE ( 2021, 15, 10 ) ;
#169 = PERSON_AND_ORGANIZATION_ROLE ( 'creator' ) ;
#170 = CALENDAR_DATE ( 2021, 15, 10 ) ;
#171 = LOCAL_TIME ( 15, 34, 5.000000000000000000, #76 ) ;
#172 = EDGE_CURVE ( 'NONE', #131, #131, #190, .T. ) ;
#173 = EDGE_LOOP ( 'NONE', ( #15 ) ) ;
#174 = CARTESIAN_POINT ( 'NONE',  ( 1.920314736363723472E-13, -6.735557395310442615E-15, 55.00000000000000000 ) ) ;
#175 = EDGE_LOOP ( 'NONE', ( #127 ) ) ;
#176 = EDGE_LOOP ( 'NONE', ( #65 ) ) ;
#177 = AXIS2_PLACEMENT_3D ( 'NONE', #117, #48, #33 ) ;
#178 = EDGE_LOOP ( 'NONE', ( #1 ) ) ;
#179 = DIRECTION ( 'NONE',  ( 0.0000000000000000000, 1.000000000000000000, 0.0000000000000000000 ) ) ;
#180 = ADVANCED_FACE ( 'NONE', ( #40 ), #105, .F. ) ;
#181 = FACE_OUTER_BOUND ( 'NONE', #52, .T. ) ;
#182 = DIRECTION ( 'NONE',  ( 4.275831445896957731E-31, 1.000000000000000000, 1.224646799147353207E-16 ) ) ;
#183 = PRODUCT_DEFINITION ( 'UNKNOWN', '', #100, #22 ) ;
#184 = PERSON_AND_ORGANIZATION_ROLE ( 'design_owner' ) ;
#185 = AXIS2_PLACEMENT_3D ( 'NONE', #88, #8, #89 ) ;
#186 = COORDINATED_UNIVERSAL_TIME_OFFSET ( 1, 0, .AHEAD. ) ;
#187 = SECURITY_CLASSIFICATION_LEVEL ( 'unclassified' ) ;
#188 = ADVANCED_FACE ( 'NONE', ( #162 ), #142, .T. ) ;
#189 = CC_DESIGN_DATE_AND_TIME_ASSIGNMENT ( #44, #41, ( #183 ) ) ;
#190 = CIRCLE ( 'NONE', #29, 1.900000000000000355 ) ;
#191 = CC_DESIGN_PERSON_AND_ORGANIZATION_ASSIGNMENT ( #26, #154, ( #100 ) ) ;
#192 = ORIENTED_EDGE ( 'NONE', *, *, #75, .F. ) ;
#193 = CC_DESIGN_APPROVAL ( #144, ( #183 ) ) ;
#194 = CARTESIAN_POINT ( 'NONE',  ( 7.681258945454893382E-14, 1.424771793528758159E-32, 22.00000000000000000 ) ) ;
#195 = CARTESIAN_POINT ( 'NONE',  ( 1.906348811008350938E-13, -6.686571523344548398E-15, 54.60000000000000142 ) ) ;
#196 = AXIS2_PLACEMENT_3D ( 'NONE', #19, #145, #36 ) ;
#197 = DIRECTION ( 'NONE',  ( 3.491481338843133355E-15, -1.224646799147353207E-16, 1.000000000000000000 ) ) ;
#198 = PERSON_AND_ORGANIZATION_ROLE ( 'classification_officer' ) ;
#199 = APPROVAL_DATE_TIME ( #28, #7 ) ;
#200 = CIRCLE ( 'NONE', #163, 1.899999999999996358 ) ;
#201 = APPROVAL_STATUS ( 'not_yet_approved' ) ;
#202 = PERSON_AND_ORGANIZATION ( #86, #134 ) ;
#203 = CARTESIAN_POINT ( 'NONE',  ( 0.0000000000000000000, 0.0000000000000000000, 0.0000000000000000000 ) ) ;
ENDSEC;
END-ISO-10303-21;
