ISO-10303-21;
HEADER;
FILE_DESCRIPTION (( 'STEP AP203' ),
    '1' );
FILE_NAME ('29108.step',
    '2021-10-15T13:34:05',
    ( '' ),
    ( '' ),
    'SwSTEP 2.0',
    'SolidWorks 2019',
    '' );
FILE_SCHEMA (( 'CONFIG_CONTROL_DESIGN' ));
ENDSEC;

DATA;
#1 = APPROVAL_DATE_TIME ( #200, #59 ) ;
#2 = EDGE_LOOP ( 'NONE', ( #172 ) ) ;
#3 = DIRECTION ( 'NONE',  ( -3.491481338843133355E-15, 1.224646799147353454E-16, -1.000000000000000000 ) ) ;
#4 = ORIENTED_EDGE ( 'NONE', *, *, #49, .F. ) ;
#5 = APPROVAL ( #182, 'UNSPECIFIED' ) ;
#6 = VERTEX_POINT ( 'NONE', #131 ) ;
#7 = PLANE ( 'NONE',  #111 ) ;
#8 = DIRECTION ( 'NONE',  ( 4.275831445896959482E-31, 1.000000000000000000, 1.224646799147353454E-16 ) ) ;
#9 = ADVANCED_FACE ( 'NONE', ( #141 ), #190, .F. ) ;
#10 = DIRECTION ( 'NONE',  ( 0.0000000000000000000, 1.000000000000000000, 0.0000000000000000000 ) ) ;
#11 = APPROVAL_DATE_TIME ( #199, #67 ) ;
#12 = CC_DESIGN_SECURITY_CLASSIFICATION ( #117, ( #151 ) ) ;
#13 = COORDINATED_UNIVERSAL_TIME_OFFSET ( 1, 0, .AHEAD. ) ;
#14 = SHAPE_DEFINITION_REPRESENTATION ( #162, #41 ) ;
#15 = PERSON ( 'UNSPECIFIED', 'UNSPECIFIED', 'UNSPECIFIED', ('UNSPECIFIED'), ('UNSPECIFIED'), ('UNSPECIFIED') ) ;
#16 = APPROVAL_STATUS ( 'not_yet_approved' ) ;
#17 = CONICAL_SURFACE ( 'NONE', #191, 1.749999999999994227, 1.221730476396026388 ) ;
#18 = ORIENTED_EDGE ( 'NONE', *, *, #87, .F. ) ;
#19 = EDGE_LOOP ( 'NONE', ( #158 ) ) ;
#20 = ORGANIZATION ( 'UNSPECIFIED', 'UNSPECIFIED', '' ) ;
#21 = LOCAL_TIME ( 15, 34, 5.000000000000000000, #121 ) ;
#22 = EDGE_LOOP ( 'NONE', ( #78 ) ) ;
#23 = DIRECTION ( 'NONE',  ( 3.491481338843133355E-15, -1.224646799147353454E-16, 1.000000000000000000 ) ) ;
#24 = PLANE ( 'NONE',  #179 ) ;
#25 = FACE_OUTER_BOUND ( 'NONE', #2, .T. ) ;
#26 = CYLINDRICAL_SURFACE ( 'NONE', #127, 1.749999999999995559 ) ;
#27 = MANIFOLD_SOLID_BREP ( 'Corps-Déplacer/Copier1[1]', #194 ) ;
#28 = DIRECTION ( 'NONE',  ( 0.0000000000000000000, 0.0000000000000000000, 1.000000000000000000 ) ) ;
#29 = DATE_TIME_ROLE ( 'creation_date' ) ;
#30 = MANIFOLD_SOLID_BREP ( 'Corps-Déplacer/Copier1[2]', #188 ) ;
#31 = PERSON_AND_ORGANIZATION ( #15, #20 ) ;
#32 = CC_DESIGN_PERSON_AND_ORGANIZATION_ASSIGNMENT ( #123, #58, ( #151 ) ) ;
#33 = EDGE_LOOP ( 'NONE', ( #65 ) ) ;
#34 = DIRECTION ( 'NONE',  ( 0.0000000000000000000, 1.000000000000000000, 0.0000000000000000000 ) ) ;
#35 = APPLICATION_CONTEXT ( 'configuration controlled 3d designs of mechanical parts and assemblies' ) ;
#36 = FACE_OUTER_BOUND ( 'NONE', #89, .T. ) ;
#37 = DIRECTION ( 'NONE',  ( 0.0000000000000000000, 1.000000000000000000, 0.0000000000000000000 ) ) ;
#38 = FACE_OUTER_BOUND ( 'NONE', #125, .T. ) ;
#39 = CARTESIAN_POINT ( 'NONE',  ( 0.0000000000000000000, 0.0000000000000000000, 0.0000000000000000000 ) ) ;
#40 = CARTESIAN_POINT ( 'NONE',  ( 2.223891741460937674E-15, -7.800362191632875469E-17, 0.6369479099658603705 ) ) ;
#41 = ADVANCED_BREP_SHAPE_REPRESENTATION ( '29108', ( #27, #30, #108 ), #120 ) ;
#42 = APPROVAL_STATUS ( 'not_yet_approved' ) ;
#43 = CIRCLE ( 'NONE', #98, 1.749999999999996669 ) ;
#44 = PERSON_AND_ORGANIZATION ( #15, #20 ) ;
#45 = APPLICATION_PROTOCOL_DEFINITION ( 'international standard', 'config_control_design', 1994, #180 ) ;
#46 = LOCAL_TIME ( 15, 34, 5.000000000000000000, #13 ) ;
#47 = EDGE_LOOP ( 'NONE', ( #169 ) ) ;
#48 = CARTESIAN_POINT ( 'NONE',  ( 1.815570296198429345E-13, 1.012337853296745401E-32, 52.00000000000000000 ) ) ;
#49 = EDGE_CURVE ( 'NONE', #72, #72, #159, .T. ) ;
#50 = AXIS2_PLACEMENT_3D ( 'NONE', #166, #81, #178 ) ;
#51 = DIRECTION ( 'NONE',  ( -3.491481338843133355E-15, 1.224646799147353454E-16, -1.000000000000000000 ) ) ;
#52 =( LENGTH_UNIT ( ) NAMED_UNIT ( * ) SI_UNIT ( .MILLI., .METRE. ) );
#53 = DIRECTION ( 'NONE',  ( -3.491481338843133355E-15, 1.224646799147353454E-16, -1.000000000000000000 ) ) ;
#54 = VERTEX_POINT ( 'NONE', #100 ) ;
#55 = ADVANCED_FACE ( 'NONE', ( #36, #92 ), #201, .T. ) ;
#56 = DIRECTION ( 'NONE',  ( 3.491481338843133355E-15, -1.224646799147353454E-16, 1.000000000000000000 ) ) ;
#57 = PERSON_AND_ORGANIZATION ( #15, #20 ) ;
#58 = PERSON_AND_ORGANIZATION_ROLE ( 'creator' ) ;
#59 = APPROVAL ( #16, 'UNSPECIFIED' ) ;
#60 = CIRCLE ( 'NONE', #50, 1.750000000000000444 ) ;
#61 = APPLICATION_PROTOCOL_DEFINITION ( 'international standard', 'config_control_design', 1994, #35 ) ;
#62 = PERSON_AND_ORGANIZATION_ROLE ( 'creator' ) ;
#63 = EDGE_LOOP ( 'NONE', ( #18 ) ) ;
#64 = DIRECTION ( 'NONE',  ( 4.275831445896959482E-31, 1.000000000000000000, 1.224646799147353454E-16 ) ) ;
#65 = ORIENTED_EDGE ( 'NONE', *, *, #87, .T. ) ;
#66 = LOCAL_TIME ( 15, 34, 5.000000000000000000, #88 ) ;
#67 = APPROVAL ( #42, 'UNSPECIFIED' ) ;
#68 = DIRECTION ( 'NONE',  ( 0.0000000000000000000, 1.000000000000000000, 0.0000000000000000000 ) ) ;
#69 = CARTESIAN_POINT ( 'NONE',  ( 6.982962677686266711E-14, 1.312289809829119933E-32, 20.00000000000000000 ) ) ;
#70 = CARTESIAN_POINT ( 'NONE',  ( 6.982962677686266711E-14, 1.749999999999994227, 20.00000000000000000 ) ) ;
#71 = DIRECTION ( 'NONE',  ( -3.491481338843133355E-15, 1.224646799147353454E-16, -1.000000000000000000 ) ) ;
#72 = VERTEX_POINT ( 'NONE', #70 ) ;
#73 = AXIS2_PLACEMENT_3D ( 'NONE', #48, #3, #64 ) ;
#74 = CALENDAR_DATE ( 2021, 15, 10 ) ;
#75 = DESIGN_CONTEXT ( 'detailed design', #35, 'design' ) ;
#76 = PERSON_AND_ORGANIZATION_ROLE ( 'classification_officer' ) ;
#77 = PERSON_AND_ORGANIZATION ( #15, #20 ) ;
#78 = ORIENTED_EDGE ( 'NONE', *, *, #175, .F. ) ;
#79 = FACE_OUTER_BOUND ( 'NONE', #47, .T. ) ;
#80 = EDGE_CURVE ( 'NONE', #176, #176, #147, .T. ) ;
#81 = DIRECTION ( 'NONE',  ( -3.491481338843133355E-15, 1.224646799147353454E-16, -1.000000000000000000 ) ) ;
#82 = CARTESIAN_POINT ( 'NONE',  ( 0.0000000000000000000, 0.0000000000000000000, 0.0000000000000000000 ) ) ;
#83 = CALENDAR_DATE ( 2021, 15, 10 ) ;
#84 = CARTESIAN_POINT ( 'NONE',  ( 0.0000000000000000000, 0.0000000000000000000, 0.0000000000000000000 ) ) ;
#85 = SECURITY_CLASSIFICATION_LEVEL ( 'unclassified' ) ;
#86 = PERSON_AND_ORGANIZATION_ROLE ( 'design_supplier' ) ;
#87 = EDGE_CURVE ( 'NONE', #197, #197, #102, .T. ) ;
#88 = COORDINATED_UNIVERSAL_TIME_OFFSET ( 1, 0, .AHEAD. ) ;
#89 = EDGE_LOOP ( 'NONE', ( #115 ) ) ;
#90 = UNCERTAINTY_MEASURE_WITH_UNIT (LENGTH_MEASURE( 1.000000000000000082E-05 ), #52, 'distance_accuracy_value', 'NONE');
#91 = AXIS2_PLACEMENT_3D ( 'NONE', #39, #164, #99 ) ;
#92 = FACE_BOUND ( 'NONE', #33, .T. ) ;
#93 = PRODUCT_RELATED_PRODUCT_CATEGORY ( 'detail', '', ( #192 ) ) ;
#94 = DIRECTION ( 'NONE',  ( -3.491481338843133355E-15, 1.224646799147353454E-16, -1.000000000000000000 ) ) ;
#95 = FACE_OUTER_BOUND ( 'NONE', #143, .T. ) ;
#96 = DIRECTION ( 'NONE',  ( 4.402125587170838945E-31, 1.000000000000000000, 1.239088197126294761E-16 ) ) ;
#97 = CC_DESIGN_DATE_AND_TIME_ASSIGNMENT ( #154, #29, ( #138 ) ) ;
#98 = AXIS2_PLACEMENT_3D ( 'NONE', #132, #163, #10 ) ;
#99 = DIRECTION ( 'NONE',  ( 4.275831445896959482E-31, 1.000000000000000000, 1.224646799147353454E-16 ) ) ;
#100 = CARTESIAN_POINT ( 'NONE',  ( 6.982962677686266711E-14, 1.749999999999994227, 20.00000000000000000 ) ) ;
#101 = DATE_AND_TIME ( #74, #66 ) ;
#102 = CIRCLE ( 'NONE', #124, 1.350000000000000533 ) ;
#103 = CC_DESIGN_APPROVAL ( #5, ( #117 ) ) ;
#104 = CALENDAR_DATE ( 2021, 15, 10 ) ;
#105 = ADVANCED_FACE ( 'NONE', ( #116 ), #17, .T. ) ;
#106 = COORDINATED_UNIVERSAL_TIME_OFFSET ( 1, 0, .AHEAD. ) ;
#107 = PERSON_AND_ORGANIZATION ( #15, #20 ) ;
#108 = AXIS2_PLACEMENT_3D ( 'NONE', #84, #28, #152 ) ;
#109 = DATE_TIME_ROLE ( 'classification_date' ) ;
#110 = LOCAL_TIME ( 15, 34, 5.000000000000000000, #137 ) ;
#111 = AXIS2_PLACEMENT_3D ( 'NONE', #69, #23, #148 ) ;
#112 = CARTESIAN_POINT ( 'NONE',  ( 6.982962677686266711E-14, -2.449293598294706907E-15, 20.00000000000000000 ) ) ;
#113 = CC_DESIGN_DATE_AND_TIME_ASSIGNMENT ( #153, #109, ( #117 ) ) ;
#114 = CARTESIAN_POINT ( 'NONE',  ( 1.815570296198429345E-13, -6.368163355566237959E-15, 52.00000000000000000 ) ) ;
#115 = ORIENTED_EDGE ( 'NONE', *, *, #155, .F. ) ;
#116 = FACE_OUTER_BOUND ( 'NONE', #144, .T. ) ;
#117 = SECURITY_CLASSIFICATION ( '', '', #85 ) ;
#118 = CARTESIAN_POINT ( 'NONE',  ( 2.223891741460937674E-15, -7.800362191632875469E-17, 0.6369479099658603705 ) ) ;
#119 = CARTESIAN_POINT ( 'NONE',  ( 6.982962677686266711E-14, 1.312289809829119933E-32, 20.00000000000000000 ) ) ;
#120 =( GEOMETRIC_REPRESENTATION_CONTEXT ( 3 ) GLOBAL_UNCERTAINTY_ASSIGNED_CONTEXT ( ( #90 ) ) GLOBAL_UNIT_ASSIGNED_CONTEXT ( ( #52, #145, #193 ) ) REPRESENTATION_CONTEXT ( 'NONE', 'WORKASPACE' ) );
#121 = COORDINATED_UNIVERSAL_TIME_OFFSET ( 1, 0, .AHEAD. ) ;
#122 = AXIS2_PLACEMENT_3D ( 'NONE', #112, #51, #34 ) ;
#123 = PERSON_AND_ORGANIZATION ( #15, #20 ) ;
#124 = AXIS2_PLACEMENT_3D ( 'NONE', #173, #71, #37 ) ;
#125 = EDGE_LOOP ( 'NONE', ( #189 ) ) ;
#126 = ADVANCED_FACE ( 'NONE', ( #38 ), #7, .F. ) ;
#127 = AXIS2_PLACEMENT_3D ( 'NONE', #82, #165, #8 ) ;
#128 = CARTESIAN_POINT ( 'NONE',  ( 2.223891741460938463E-15, 1.749999999999994227, 0.6369479099658605925 ) ) ;
#129 = DIRECTION ( 'NONE',  ( -4.275831445896959482E-31, -1.000000000000000000, -1.224646799147353454E-16 ) ) ;
#130 = APPROVAL_PERSON_ORGANIZATION ( #149, #5, #157 ) ;
#131 = CARTESIAN_POINT ( 'NONE',  ( 1.801604370843056559E-13, 1.749999999999994227, 51.59999999999999432 ) ) ;
#132 = CARTESIAN_POINT ( 'NONE',  ( 6.982962677686266711E-14, -2.449293598294706907E-15, 20.00000000000000000 ) ) ;
#133 = CYLINDRICAL_SURFACE ( 'NONE', #91, 1.749999999999998446 ) ;
#134 = APPROVAL_PERSON_ORGANIZATION ( #31, #67, #185 ) ;
#135 = APPROVAL_DATE_TIME ( #101, #5 ) ;
#136 = CALENDAR_DATE ( 2021, 15, 10 ) ;
#137 = COORDINATED_UNIVERSAL_TIME_OFFSET ( 1, 0, .AHEAD. ) ;
#138 = PRODUCT_DEFINITION ( 'UNKNOWN', '', #151, #75 ) ;
#139 = APPROVAL_ROLE ( '' ) ;
#140 = ORIENTED_EDGE ( 'NONE', *, *, #80, .T. ) ;
#141 = FACE_OUTER_BOUND ( 'NONE', #63, .T. ) ;
#142 = ADVANCED_FACE ( 'NONE', ( #195 ), #24, .T. ) ;
#143 = EDGE_LOOP ( 'NONE', ( #4 ) ) ;
#144 = EDGE_LOOP ( 'NONE', ( #140 ) ) ;
#145 =( NAMED_UNIT ( * ) PLANE_ANGLE_UNIT ( ) SI_UNIT ( $, .RADIAN. ) );
#146 = DIRECTION ( 'NONE',  ( 3.491481338843133355E-15, -1.224646799147353454E-16, 1.000000000000000000 ) ) ;
#147 = CIRCLE ( 'NONE', #156, 1.749999999999994227 ) ;
#148 = DIRECTION ( 'NONE',  ( -4.275831445896959482E-31, -1.000000000000000000, -1.224646799147353454E-16 ) ) ;
#149 = PERSON_AND_ORGANIZATION ( #15, #20 ) ;
#150 = AXIS2_PLACEMENT_3D ( 'NONE', #114, #94, #68 ) ;
#151 = PRODUCT_DEFINITION_FORMATION_WITH_SPECIFIED_SOURCE ( 'ANY', '', #192, .NOT_KNOWN. ) ;
#152 = DIRECTION ( 'NONE',  ( 1.000000000000000000, 0.0000000000000000000, 0.0000000000000000000 ) ) ;
#153 = DATE_AND_TIME ( #83, #110 ) ;
#154 = DATE_AND_TIME ( #136, #21 ) ;
#155 = EDGE_CURVE ( 'NONE', #6, #6, #60, .T. ) ;
#156 = AXIS2_PLACEMENT_3D ( 'NONE', #40, #53, #96 ) ;
#157 = APPROVAL_ROLE ( '' ) ;
#158 = ORIENTED_EDGE ( 'NONE', *, *, #175, .T. ) ;
#159 = CIRCLE ( 'NONE', #122, 1.749999999999996669 ) ;
#160 = CC_DESIGN_APPROVAL ( #59, ( #151 ) ) ;
#161 = CC_DESIGN_PERSON_AND_ORGANIZATION_ASSIGNMENT ( #168, #62, ( #138 ) ) ;
#162 = PRODUCT_DEFINITION_SHAPE ( 'NONE', 'NONE',  #138 ) ;
#163 = DIRECTION ( 'NONE',  ( -3.491481338843133355E-15, 1.224646799147353454E-16, -1.000000000000000000 ) ) ;
#164 = DIRECTION ( 'NONE',  ( -3.491481338843133355E-15, 1.224646799147353454E-16, -1.000000000000000000 ) ) ;
#165 = DIRECTION ( 'NONE',  ( -3.491481338843133355E-15, 1.224646799147353454E-16, -1.000000000000000000 ) ) ;
#166 = CARTESIAN_POINT ( 'NONE',  ( 1.801604370843056559E-13, -6.319177483600343742E-15, 51.59999999999999432 ) ) ;
#167 = ADVANCED_FACE ( 'NONE', ( #95, #79 ), #133, .T. ) ;
#168 = PERSON_AND_ORGANIZATION ( #15, #20 ) ;
#169 = ORIENTED_EDGE ( 'NONE', *, *, #155, .T. ) ;
#170 = ADVANCED_FACE ( 'NONE', ( #25, #181 ), #26, .T. ) ;
#171 = CC_DESIGN_PERSON_AND_ORGANIZATION_ASSIGNMENT ( #77, #183, ( #192 ) ) ;
#172 = ORIENTED_EDGE ( 'NONE', *, *, #80, .F. ) ;
#173 = CARTESIAN_POINT ( 'NONE',  ( 1.815570296198429345E-13, -6.368163355566237959E-15, 52.00000000000000000 ) ) ;
#174 = DIRECTION ( 'NONE',  ( -4.402125587170838945E-31, -1.000000000000000000, -1.239088197126294761E-16 ) ) ;
#175 = EDGE_CURVE ( 'NONE', #54, #54, #43, .T. ) ;
#176 = VERTEX_POINT ( 'NONE', #128 ) ;
#177 = CC_DESIGN_PERSON_AND_ORGANIZATION_ASSIGNMENT ( #44, #86, ( #151 ) ) ;
#178 = DIRECTION ( 'NONE',  ( 0.0000000000000000000, 1.000000000000000000, 0.0000000000000000000 ) ) ;
#179 = AXIS2_PLACEMENT_3D ( 'NONE', #119, #56, #129 ) ;
#180 = APPLICATION_CONTEXT ( 'configuration controlled 3d designs of mechanical parts and assemblies' ) ;
#181 = FACE_OUTER_BOUND ( 'NONE', #19, .T. ) ;
#182 = APPROVAL_STATUS ( 'not_yet_approved' ) ;
#183 = PERSON_AND_ORGANIZATION_ROLE ( 'design_owner' ) ;
#184 = APPROVAL_PERSON_ORGANIZATION ( #57, #59, #139 ) ;
#185 = APPROVAL_ROLE ( '' ) ;
#186 = CC_DESIGN_PERSON_AND_ORGANIZATION_ASSIGNMENT ( #107, #76, ( #117 ) ) ;
#187 = MECHANICAL_CONTEXT ( 'NONE', #180, 'mechanical' ) ;
#188 = CLOSED_SHELL ( 'NONE', ( #105, #170, #142 ) ) ;
#189 = ORIENTED_EDGE ( 'NONE', *, *, #49, .T. ) ;
#190 = PLANE ( 'NONE',  #73 ) ;
#191 = AXIS2_PLACEMENT_3D ( 'NONE', #118, #146, #174 ) ;
#192 = PRODUCT ( '29108', '29108', '', ( #187 ) ) ;
#193 =( NAMED_UNIT ( * ) SI_UNIT ( $, .STERADIAN. ) SOLID_ANGLE_UNIT ( ) );
#194 = CLOSED_SHELL ( 'NONE', ( #126, #167, #55, #9 ) ) ;
#195 = FACE_OUTER_BOUND ( 'NONE', #22, .T. ) ;
#196 = CARTESIAN_POINT ( 'NONE',  ( 1.815570296198429345E-13, 1.349999999999994316, 52.00000000000000000 ) ) ;
#197 = VERTEX_POINT ( 'NONE', #196 ) ;
#198 = CC_DESIGN_APPROVAL ( #67, ( #138 ) ) ;
#199 = DATE_AND_TIME ( #104, #46 ) ;
#200 = DATE_AND_TIME ( #203, #202 ) ;
#201 = CONICAL_SURFACE ( 'NONE', #150, 1.350000000000000533, 0.7853981633974426169 ) ;
#202 = LOCAL_TIME ( 15, 34, 5.000000000000000000, #106 ) ;
#203 = CALENDAR_DATE ( 2021, 15, 10 ) ;
ENDSEC;
END-ISO-10303-21;
