ISO-10303-21;
HEADER;
FILE_DESCRIPTION (( 'STEP AP203' ),
    '1' );
FILE_NAME ('29107.step',
    '2021-10-15T13:34:04',
    ( '' ),
    ( '' ),
    'SwSTEP 2.0',
    'SolidWorks 2019',
    '' );
FILE_SCHEMA (( 'CONFIG_CONTROL_DESIGN' ));
ENDSEC;

DATA;
#1 = FACE_OUTER_BOUND ( 'NONE', #40, .T. ) ;
#2 = PERSON_AND_ORGANIZATION ( #76, #21 ) ;
#3 = AXIS2_PLACEMENT_3D ( 'NONE', #151, #106, #198 ) ;
#4 = PERSON_AND_ORGANIZATION ( #76, #21 ) ;
#5 = PERSON_AND_ORGANIZATION_ROLE ( 'design_owner' ) ;
#6 = CC_DESIGN_APPROVAL ( #104, ( #150 ) ) ;
#7 = EDGE_LOOP ( 'NONE', ( #176 ) ) ;
#8 = CC_DESIGN_DATE_AND_TIME_ASSIGNMENT ( #54, #86, ( #129 ) ) ;
#9 = DIRECTION ( 'NONE',  ( 1.000000000000000000, 0.0000000000000000000, 0.0000000000000000000 ) ) ;
#10 = ADVANCED_FACE ( 'NONE', ( #165, #181 ), #89, .T. ) ;
#11 = APPROVAL_PERSON_ORGANIZATION ( #70, #56, #20 ) ;
#12 = PRODUCT_DEFINITION_SHAPE ( 'NONE', 'NONE',  #129 ) ;
#13 = VERTEX_POINT ( 'NONE', #171 ) ;
#14 = DIRECTION ( 'NONE',  ( 0.0000000000000000000, 1.000000000000000000, 0.0000000000000000000 ) ) ;
#15 = AXIS2_PLACEMENT_3D ( 'NONE', #108, #94, #168 ) ;
#16 = CARTESIAN_POINT ( 'NONE',  ( 6.284666409917640040E-14, 1.237301820696026779E-32, 18.00000000000000000 ) ) ;
#17 = DIRECTION ( 'NONE',  ( 3.491481338843133355E-15, -1.224646799147353207E-16, 1.000000000000000000 ) ) ;
#18 = APPLICATION_PROTOCOL_DEFINITION ( 'international standard', 'config_control_design', 1994, #97 ) ;
#19 = CLOSED_SHELL ( 'NONE', ( #146, #178, #72 ) ) ;
#20 = APPROVAL_ROLE ( '' ) ;
#21 = ORGANIZATION ( 'UNSPECIFIED', 'UNSPECIFIED', '' ) ;
#22 = COORDINATED_UNIVERSAL_TIME_OFFSET ( 1, 0, .AHEAD. ) ;
#23 = AXIS2_PLACEMENT_3D ( 'NONE', #110, #124, #47 ) ;
#24 = EDGE_LOOP ( 'NONE', ( #42 ) ) ;
#25 = ORIENTED_EDGE ( 'NONE', *, *, #166, .T. ) ;
#26 = CC_DESIGN_APPROVAL ( #116, ( #57 ) ) ;
#27 = FACE_OUTER_BOUND ( 'NONE', #200, .T. ) ;
#28 = CARTESIAN_POINT ( 'NONE',  ( 6.284666409917640040E-14, -2.204364238465235428E-15, 18.00000000000000000 ) ) ;
#29 = DIRECTION ( 'NONE',  ( -4.668921077302406163E-31, -1.000000000000000000, -1.314184451497585696E-16 ) ) ;
#30 = CLOSED_SHELL ( 'NONE', ( #75, #93, #10, #87 ) ) ;
#31 = FACE_OUTER_BOUND ( 'NONE', #24, .T. ) ;
#32 = CARTESIAN_POINT ( 'NONE',  ( 6.284666409917640040E-14, 1.649999999999994360, 18.00000000000000000 ) ) ;
#33 = COORDINATED_UNIVERSAL_TIME_OFFSET ( 1, 0, .AHEAD. ) ;
#34 = CALENDAR_DATE ( 2021, 15, 10 ) ;
#35 = APPLICATION_PROTOCOL_DEFINITION ( 'international standard', 'config_control_design', 1994, #134 ) ;
#36 = DIRECTION ( 'NONE',  ( 0.0000000000000000000, 1.000000000000000000, 0.0000000000000000000 ) ) ;
#37 = DIRECTION ( 'NONE',  ( 0.0000000000000000000, 0.0000000000000000000, 1.000000000000000000 ) ) ;
#38 = PERSON_AND_ORGANIZATION_ROLE ( 'creator' ) ;
#39 = LOCAL_TIME ( 15, 34, 4.000000000000000000, #163 ) ;
#40 = EDGE_LOOP ( 'NONE', ( #55 ) ) ;
#41 = AXIS2_PLACEMENT_3D ( 'NONE', #192, #142, #156 ) ;
#42 = ORIENTED_EDGE ( 'NONE', *, *, #180, .T. ) ;
#43 = CARTESIAN_POINT ( 'NONE',  ( 6.284666409917640040E-14, -2.204364238465235428E-15, 18.00000000000000000 ) ) ;
#44 = CC_DESIGN_SECURITY_CLASSIFICATION ( #57, ( #150 ) ) ;
#45 =( LENGTH_UNIT ( ) NAMED_UNIT ( * ) SI_UNIT ( .MILLI., .METRE. ) );
#46 = CARTESIAN_POINT ( 'NONE',  ( 2.096812213377456535E-15, 1.649999999999994360, 0.6005508865392400475 ) ) ;
#47 = DIRECTION ( 'NONE',  ( 4.275831445896958607E-31, 1.000000000000000000, 1.224646799147353207E-16 ) ) ;
#48 = APPROVAL_DATE_TIME ( #195, #116 ) ;
#49 = UNCERTAINTY_MEASURE_WITH_UNIT (LENGTH_MEASURE( 1.000000000000000082E-05 ), #45, 'distance_accuracy_value', 'NONE');
#50 = APPROVAL_STATUS ( 'not_yet_approved' ) ;
#51 = EDGE_CURVE ( 'NONE', #193, #193, #157, .T. ) ;
#52 = APPROVAL_STATUS ( 'not_yet_approved' ) ;
#53 = APPROVAL_DATE_TIME ( #175, #104 ) ;
#54 = DATE_AND_TIME ( #73, #187 ) ;
#55 = ORIENTED_EDGE ( 'NONE', *, *, #141, .F. ) ;
#56 = APPROVAL ( #82, 'UNSPECIFIED' ) ;
#57 = SECURITY_CLASSIFICATION ( '', '', #67 ) ;
#58 = ORIENTED_EDGE ( 'NONE', *, *, #51, .F. ) ;
#59 = FACE_OUTER_BOUND ( 'NONE', #88, .T. ) ;
#60 = CC_DESIGN_PERSON_AND_ORGANIZATION_ASSIGNMENT ( #69, #173, ( #129 ) ) ;
#61 = CIRCLE ( 'NONE', #182, 1.649999999999996581 ) ;
#62 = CYLINDRICAL_SURFACE ( 'NONE', #41, 1.649999999999998357 ) ;
#63 =( NAMED_UNIT ( * ) SI_UNIT ( $, .STERADIAN. ) SOLID_ANGLE_UNIT ( ) );
#64 = PRODUCT_RELATED_PRODUCT_CATEGORY ( 'detail', '', ( #184 ) ) ;
#65 = CARTESIAN_POINT ( 'NONE',  ( 2.096812213377455746E-15, -7.354627209253853908E-17, 0.6005508865392398254 ) ) ;
#66 = AXIS2_PLACEMENT_3D ( 'NONE', #65, #189, #29 ) ;
#67 = SECURITY_CLASSIFICATION_LEVEL ( 'unclassified' ) ;
#68 = COORDINATED_UNIVERSAL_TIME_OFFSET ( 1, 0, .AHEAD. ) ;
#69 = PERSON_AND_ORGANIZATION ( #76, #21 ) ;
#70 = PERSON_AND_ORGANIZATION ( #76, #21 ) ;
#71 = EDGE_LOOP ( 'NONE', ( #74 ) ) ;
#72 = ADVANCED_FACE ( 'NONE', ( #118 ), #105, .T. ) ;
#73 = CALENDAR_DATE ( 2021, 15, 10 ) ;
#74 = ORIENTED_EDGE ( 'NONE', *, *, #158, .F. ) ;
#75 = ADVANCED_FACE ( 'NONE', ( #59 ), #111, .F. ) ;
#76 = PERSON ( 'UNSPECIFIED', 'UNSPECIFIED', 'UNSPECIFIED', ('UNSPECIFIED'), ('UNSPECIFIED'), ('UNSPECIFIED') ) ;
#77 = CARTESIAN_POINT ( 'NONE',  ( 1.696859930677762937E-13, -5.951783443856137509E-15, 48.60000000000000142 ) ) ;
#78 = DIRECTION ( 'NONE',  ( 4.668921077302406163E-31, 1.000000000000000000, 1.314184451497585696E-16 ) ) ;
#79 = PLANE ( 'NONE',  #15 ) ;
#80 = VERTEX_POINT ( 'NONE', #46 ) ;
#81 = CC_DESIGN_APPROVAL ( #56, ( #129 ) ) ;
#82 = APPROVAL_STATUS ( 'not_yet_approved' ) ;
#83 = DATE_AND_TIME ( #127, #167 ) ;
#84 = CALENDAR_DATE ( 2021, 15, 10 ) ;
#85 = EDGE_LOOP ( 'NONE', ( #202 ) ) ;
#86 = DATE_TIME_ROLE ( 'creation_date' ) ;
#87 = ADVANCED_FACE ( 'NONE', ( #107 ), #79, .F. ) ;
#88 = EDGE_LOOP ( 'NONE', ( #148 ) ) ;
#89 = CONICAL_SURFACE ( 'NONE', #98, 1.250000000000000444, 0.7853981633974510546 ) ;
#90 = DIRECTION ( 'NONE',  ( 3.491481338843133355E-15, -1.224646799147353207E-16, 1.000000000000000000 ) ) ;
#91 = FACE_OUTER_BOUND ( 'NONE', #7, .T. ) ;
#92 = FACE_OUTER_BOUND ( 'NONE', #85, .T. ) ;
#93 = ADVANCED_FACE ( 'NONE', ( #1, #27 ), #62, .T. ) ;
#94 = DIRECTION ( 'NONE',  ( -3.491481338843133355E-15, 1.224646799147353207E-16, -1.000000000000000000 ) ) ;
#95 = VERTEX_POINT ( 'NONE', #155 ) ;
#96 = DESIGN_CONTEXT ( 'detailed design', #97, 'design' ) ;
#97 = APPLICATION_CONTEXT ( 'configuration controlled 3d designs of mechanical parts and assemblies' ) ;
#98 = AXIS2_PLACEMENT_3D ( 'NONE', #115, #185, #36 ) ;
#99 = APPROVAL_DATE_TIME ( #131, #56 ) ;
#100 = DATE_TIME_ROLE ( 'classification_date' ) ;
#101 = CC_DESIGN_DATE_AND_TIME_ASSIGNMENT ( #83, #100, ( #57 ) ) ;
#102 = APPROVAL_ROLE ( '' ) ;
#103 = AXIS2_PLACEMENT_3D ( 'NONE', #147, #37, #9 ) ;
#104 = APPROVAL ( #52, 'UNSPECIFIED' ) ;
#105 = PLANE ( 'NONE',  #133 ) ;
#106 = DIRECTION ( 'NONE',  ( -3.491481338843133355E-15, 1.224646799147353207E-16, -1.000000000000000000 ) ) ;
#107 = FACE_OUTER_BOUND ( 'NONE', #122, .T. ) ;
#108 = CARTESIAN_POINT ( 'NONE',  ( 1.710825856033135470E-13, 9.373498641636523836E-33, 49.00000000000000000 ) ) ;
#109 = CC_DESIGN_PERSON_AND_ORGANIZATION_ASSIGNMENT ( #114, #5, ( #184 ) ) ;
#110 = CARTESIAN_POINT ( 'NONE',  ( 0.0000000000000000000, 0.0000000000000000000, 0.0000000000000000000 ) ) ;
#111 = PLANE ( 'NONE',  #139 ) ;
#112 =( GEOMETRIC_REPRESENTATION_CONTEXT ( 3 ) GLOBAL_UNCERTAINTY_ASSIGNED_CONTEXT ( ( #49 ) ) GLOBAL_UNIT_ASSIGNED_CONTEXT ( ( #45, #154, #63 ) ) REPRESENTATION_CONTEXT ( 'NONE', 'WORKASPACE' ) );
#113 = DIRECTION ( 'NONE',  ( -4.275831445896958607E-31, -1.000000000000000000, -1.224646799147353207E-16 ) ) ;
#114 = PERSON_AND_ORGANIZATION ( #76, #21 ) ;
#115 = CARTESIAN_POINT ( 'NONE',  ( 1.710825856033135470E-13, -6.000769315822030937E-15, 49.00000000000000000 ) ) ;
#116 = APPROVAL ( #50, 'UNSPECIFIED' ) ;
#117 = MECHANICAL_CONTEXT ( 'NONE', #134, 'mechanical' ) ;
#118 = FACE_OUTER_BOUND ( 'NONE', #71, .T. ) ;
#119 = APPROVAL_ROLE ( '' ) ;
#120 = CIRCLE ( 'NONE', #130, 1.649999999999994360 ) ;
#121 = ORIENTED_EDGE ( 'NONE', *, *, #51, .T. ) ;
#122 = EDGE_LOOP ( 'NONE', ( #58 ) ) ;
#123 = DIRECTION ( 'NONE',  ( -3.491481338843133355E-15, 1.224646799147353207E-16, -1.000000000000000000 ) ) ;
#124 = DIRECTION ( 'NONE',  ( -3.491481338843133355E-15, 1.224646799147353207E-16, -1.000000000000000000 ) ) ;
#125 = DIRECTION ( 'NONE',  ( -3.491481338843133355E-15, 1.224646799147353207E-16, -1.000000000000000000 ) ) ;
#126 = APPROVAL_PERSON_ORGANIZATION ( #132, #116, #102 ) ;
#127 = CALENDAR_DATE ( 2021, 15, 10 ) ;
#128 = PERSON_AND_ORGANIZATION ( #76, #21 ) ;
#129 = PRODUCT_DEFINITION ( 'UNKNOWN', '', #150, #96 ) ;
#130 = AXIS2_PLACEMENT_3D ( 'NONE', #159, #190, #78 ) ;
#131 = DATE_AND_TIME ( #145, #144 ) ;
#132 = PERSON_AND_ORGANIZATION ( #76, #21 ) ;
#133 = AXIS2_PLACEMENT_3D ( 'NONE', #16, #90, #203 ) ;
#134 = APPLICATION_CONTEXT ( 'configuration controlled 3d designs of mechanical parts and assemblies' ) ;
#135 = EDGE_LOOP ( 'NONE', ( #121 ) ) ;
#136 = ORIENTED_EDGE ( 'NONE', *, *, #166, .F. ) ;
#137 = CARTESIAN_POINT ( 'NONE',  ( 6.284666409917640040E-14, 1.237301820696026779E-32, 18.00000000000000000 ) ) ;
#138 = DIRECTION ( 'NONE',  ( 0.0000000000000000000, 1.000000000000000000, 0.0000000000000000000 ) ) ;
#139 = AXIS2_PLACEMENT_3D ( 'NONE', #137, #17, #113 ) ;
#140 = CARTESIAN_POINT ( 'NONE',  ( 1.710825856033135470E-13, 1.249999999999994449, 49.00000000000000000 ) ) ;
#141 = EDGE_CURVE ( 'NONE', #13, #13, #162, .T. ) ;
#142 = DIRECTION ( 'NONE',  ( -3.491481338843133355E-15, 1.224646799147353207E-16, -1.000000000000000000 ) ) ;
#143 = VERTEX_POINT ( 'NONE', #32 ) ;
#144 = LOCAL_TIME ( 15, 34, 4.000000000000000000, #33 ) ;
#145 = CALENDAR_DATE ( 2021, 15, 10 ) ;
#146 = ADVANCED_FACE ( 'NONE', ( #31 ), #194, .T. ) ;
#147 = CARTESIAN_POINT ( 'NONE',  ( 0.0000000000000000000, 0.0000000000000000000, 0.0000000000000000000 ) ) ;
#148 = ORIENTED_EDGE ( 'NONE', *, *, #141, .T. ) ;
#149 = APPROVAL_PERSON_ORGANIZATION ( #4, #104, #119 ) ;
#150 = PRODUCT_DEFINITION_FORMATION_WITH_SPECIFIED_SOURCE ( 'ANY', '', #184, .NOT_KNOWN. ) ;
#151 = CARTESIAN_POINT ( 'NONE',  ( 1.710825856033135470E-13, -6.000769315822030937E-15, 49.00000000000000000 ) ) ;
#152 = AXIS2_PLACEMENT_3D ( 'NONE', #43, #169, #170 ) ;
#153 = MANIFOLD_SOLID_BREP ( 'Corps-Déplacer/Copier1[2]', #19 ) ;
#154 =( NAMED_UNIT ( * ) PLANE_ANGLE_UNIT ( ) SI_UNIT ( $, .RADIAN. ) );
#155 = CARTESIAN_POINT ( 'NONE',  ( 1.696859930677762937E-13, 1.649999999999994360, 48.60000000000000142 ) ) ;
#156 = DIRECTION ( 'NONE',  ( 4.275831445896958607E-31, 1.000000000000000000, 1.224646799147352961E-16 ) ) ;
#157 = CIRCLE ( 'NONE', #3, 1.250000000000000444 ) ;
#158 = EDGE_CURVE ( 'NONE', #143, #143, #61, .T. ) ;
#159 = CARTESIAN_POINT ( 'NONE',  ( 2.096812213377455746E-15, -7.354627209253853908E-17, 0.6005508865392398254 ) ) ;
#160 = MANIFOLD_SOLID_BREP ( 'Corps-Déplacer/Copier1[1]', #30 ) ;
#161 = CC_DESIGN_PERSON_AND_ORGANIZATION_ASSIGNMENT ( #179, #38, ( #150 ) ) ;
#162 = CIRCLE ( 'NONE', #152, 1.649999999999996581 ) ;
#163 = COORDINATED_UNIVERSAL_TIME_OFFSET ( 1, 0, .AHEAD. ) ;
#164 = ADVANCED_BREP_SHAPE_REPRESENTATION ( '29107', ( #160, #153, #103 ), #112 ) ;
#165 = FACE_OUTER_BOUND ( 'NONE', #201, .T. ) ;
#166 = EDGE_CURVE ( 'NONE', #95, #95, #197, .T. ) ;
#167 = LOCAL_TIME ( 15, 34, 4.000000000000000000, #177 ) ;
#168 = DIRECTION ( 'NONE',  ( 4.275831445896958607E-31, 1.000000000000000000, 1.224646799147353207E-16 ) ) ;
#169 = DIRECTION ( 'NONE',  ( -3.491481338843133355E-15, 1.224646799147353207E-16, -1.000000000000000000 ) ) ;
#170 = DIRECTION ( 'NONE',  ( 0.0000000000000000000, 1.000000000000000000, 0.0000000000000000000 ) ) ;
#171 = CARTESIAN_POINT ( 'NONE',  ( 6.284666409917640040E-14, 1.649999999999994360, 18.00000000000000000 ) ) ;
#172 = SHAPE_DEFINITION_REPRESENTATION ( #12, #164 ) ;
#173 = PERSON_AND_ORGANIZATION_ROLE ( 'creator' ) ;
#174 = LOCAL_TIME ( 15, 34, 4.000000000000000000, #22 ) ;
#175 = DATE_AND_TIME ( #84, #174 ) ;
#176 = ORIENTED_EDGE ( 'NONE', *, *, #158, .T. ) ;
#177 = COORDINATED_UNIVERSAL_TIME_OFFSET ( 1, 0, .AHEAD. ) ;
#178 = ADVANCED_FACE ( 'NONE', ( #92, #91 ), #186, .T. ) ;
#179 = PERSON_AND_ORGANIZATION ( #76, #21 ) ;
#180 = EDGE_CURVE ( 'NONE', #80, #80, #120, .T. ) ;
#181 = FACE_BOUND ( 'NONE', #135, .T. ) ;
#182 = AXIS2_PLACEMENT_3D ( 'NONE', #28, #123, #14 ) ;
#183 = CC_DESIGN_PERSON_AND_ORGANIZATION_ASSIGNMENT ( #2, #196, ( #150 ) ) ;
#184 = PRODUCT ( '29107', '29107', '', ( #117 ) ) ;
#185 = DIRECTION ( 'NONE',  ( -3.491481338843133355E-15, 1.224646799147353207E-16, -1.000000000000000000 ) ) ;
#186 = CYLINDRICAL_SURFACE ( 'NONE', #23, 1.649999999999995470 ) ;
#187 = LOCAL_TIME ( 15, 34, 4.000000000000000000, #68 ) ;
#188 = AXIS2_PLACEMENT_3D ( 'NONE', #77, #125, #138 ) ;
#189 = DIRECTION ( 'NONE',  ( 3.491481338843133355E-15, -1.224646799147353207E-16, 1.000000000000000000 ) ) ;
#190 = DIRECTION ( 'NONE',  ( -3.491481338843133355E-15, 1.224646799147353207E-16, -1.000000000000000000 ) ) ;
#191 = CC_DESIGN_PERSON_AND_ORGANIZATION_ASSIGNMENT ( #128, #199, ( #57 ) ) ;
#192 = CARTESIAN_POINT ( 'NONE',  ( 0.0000000000000000000, 0.0000000000000000000, 0.0000000000000000000 ) ) ;
#193 = VERTEX_POINT ( 'NONE', #140 ) ;
#194 = CONICAL_SURFACE ( 'NONE', #66, 1.649999999999994360, 1.221730476396026388 ) ;
#195 = DATE_AND_TIME ( #34, #39 ) ;
#196 = PERSON_AND_ORGANIZATION_ROLE ( 'design_supplier' ) ;
#197 = CIRCLE ( 'NONE', #188, 1.650000000000000133 ) ;
#198 = DIRECTION ( 'NONE',  ( 0.0000000000000000000, 1.000000000000000000, 0.0000000000000000000 ) ) ;
#199 = PERSON_AND_ORGANIZATION_ROLE ( 'classification_officer' ) ;
#200 = EDGE_LOOP ( 'NONE', ( #25 ) ) ;
#201 = EDGE_LOOP ( 'NONE', ( #136 ) ) ;
#202 = ORIENTED_EDGE ( 'NONE', *, *, #180, .F. ) ;
#203 = DIRECTION ( 'NONE',  ( -4.275831445896958607E-31, -1.000000000000000000, -1.224646799147353207E-16 ) ) ;
ENDSEC;
END-ISO-10303-21;
