ISO-10303-21;
HEADER;
FILE_DESCRIPTION (( 'STEP AP203' ),
    '1' );
FILE_NAME ('29106.step',
    '2021-10-15T13:34:03',
    ( '' ),
    ( '' ),
    'SwSTEP 2.0',
    'SolidWorks 2019',
    '' );
FILE_SCHEMA (( 'CONFIG_CONTROL_DESIGN' ));
ENDSEC;

DATA;
#1 = DIRECTION ( 'NONE',  ( 3.491481338843133355E-15, -1.224646799147353207E-16, 1.000000000000000000 ) ) ;
#2 = AXIS2_PLACEMENT_3D ( 'NONE', #201, #117, #6 ) ;
#3 = PERSON_AND_ORGANIZATION ( #161, #189 ) ;
#4 = DATE_AND_TIME ( #86, #131 ) ;
#5 = APPROVAL_PERSON_ORGANIZATION ( #87, #195, #196 ) ;
#6 = DIRECTION ( 'NONE',  ( 0.0000000000000000000, 1.000000000000000000, 0.0000000000000000000 ) ) ;
#7 = CALENDAR_DATE ( 2021, 15, 10 ) ;
#8 = APPROVAL ( #69, 'UNSPECIFIED' ) ;
#9 = CC_DESIGN_APPROVAL ( #145, ( #52 ) ) ;
#10 = ORIENTED_EDGE ( 'NONE', *, *, #47, .F. ) ;
#11 = CARTESIAN_POINT ( 'NONE',  ( 1.606081415867841091E-13, 8.248678804640144315E-33, 46.00000000000000000 ) ) ;
#12 = CONICAL_SURFACE ( 'NONE', #146, 1.499999999999995559, 1.221730476396026388 ) ;
#13 = DIRECTION ( 'NONE',  ( -3.491481338843133355E-15, 1.224646799147353207E-16, -1.000000000000000000 ) ) ;
#14 = VERTEX_POINT ( 'NONE', #158 ) ;
#15 = CONICAL_SURFACE ( 'NONE', #2, 1.100000000000001421, 0.7853981633974510546 ) ;
#16 = CARTESIAN_POINT ( 'NONE',  ( 5.586370142149013368E-14, -1.959434878635765131E-15, 16.00000000000000000 ) ) ;
#17 =( NAMED_UNIT ( * ) PLANE_ANGLE_UNIT ( ) SI_UNIT ( $, .RADIAN. ) );
#18 = DATE_TIME_ROLE ( 'classification_date' ) ;
#19 = CC_DESIGN_PERSON_AND_ORGANIZATION_ASSIGNMENT ( #72, #163, ( #111 ) ) ;
#20 = PERSON_AND_ORGANIZATION_ROLE ( 'classification_officer' ) ;
#21 = SHAPE_DEFINITION_REPRESENTATION ( #71, #128 ) ;
#22 = MANIFOLD_SOLID_BREP ( 'Corps-Déplacer/Copier1[2]', #49 ) ;
#23 = DIRECTION ( 'NONE',  ( -3.491481338843133355E-15, 1.224646799147353207E-16, -1.000000000000000000 ) ) ;
#24 = COORDINATED_UNIVERSAL_TIME_OFFSET ( 1, 0, .AHEAD. ) ;
#25 = CIRCLE ( 'NONE', #138, 1.500000000000001110 ) ;
#26 = ORIENTED_EDGE ( 'NONE', *, *, #118, .F. ) ;
#27 = ADVANCED_FACE ( 'NONE', ( #28, #149 ), #15, .T. ) ;
#28 = FACE_OUTER_BOUND ( 'NONE', #89, .T. ) ;
#29 = ORIENTED_EDGE ( 'NONE', *, *, #105, .F. ) ;
#30 = EDGE_LOOP ( 'NONE', ( #10 ) ) ;
#31 = CIRCLE ( 'NONE', #75, 1.100000000000001421 ) ;
#32 = VERTEX_POINT ( 'NONE', #203 ) ;
#33 = CARTESIAN_POINT ( 'NONE',  ( 5.586370142149013368E-14, -1.959434878635765131E-15, 16.00000000000000000 ) ) ;
#34 = CC_DESIGN_SECURITY_CLASSIFICATION ( #95, ( #111 ) ) ;
#35 = FACE_OUTER_BOUND ( 'NONE', #88, .T. ) ;
#36 = ADVANCED_FACE ( 'NONE', ( #181 ), #153, .F. ) ;
#37 = COORDINATED_UNIVERSAL_TIME_OFFSET ( 1, 0, .AHEAD. ) ;
#38 = PERSON_AND_ORGANIZATION ( #161, #189 ) ;
#39 = AXIS2_PLACEMENT_3D ( 'NONE', #142, #77, #191 ) ;
#40 = DATE_AND_TIME ( #56, #73 ) ;
#41 = DIRECTION ( 'NONE',  ( 0.0000000000000000000, 0.0000000000000000000, 1.000000000000000000 ) ) ;
#42 = EDGE_LOOP ( 'NONE', ( #168 ) ) ;
#43 = AXIS2_PLACEMENT_3D ( 'NONE', #109, #51, #172 ) ;
#44 = ORIENTED_EDGE ( 'NONE', *, *, #184, .T. ) ;
#45 = APPLICATION_CONTEXT ( 'configuration controlled 3d designs of mechanical parts and assemblies' ) ;
#46 = EDGE_LOOP ( 'NONE', ( #29 ) ) ;
#47 = EDGE_CURVE ( 'NONE', #144, #144, #31, .T. ) ;
#48 = DIRECTION ( 'NONE',  ( -5.135813185032644414E-31, -1.000000000000000000, -1.445602896647343601E-16 ) ) ;
#49 = CLOSED_SHELL ( 'NONE', ( #65, #165, #173 ) ) ;
#50 = APPLICATION_CONTEXT ( 'configuration controlled 3d designs of mechanical parts and assemblies' ) ;
#51 = DIRECTION ( 'NONE',  ( 3.491481338843133355E-15, -1.224646799147353207E-16, 1.000000000000000000 ) ) ;
#52 = PRODUCT_DEFINITION ( 'UNKNOWN', '', #111, #55 ) ;
#53 = CARTESIAN_POINT ( 'NONE',  ( 5.586370142149013368E-14, 1.499999999999995559, 16.00000000000000000 ) ) ;
#54 = PERSON_AND_ORGANIZATION ( #161, #189 ) ;
#55 = DESIGN_CONTEXT ( 'detailed design', #45, 'design' ) ;
#56 = CALENDAR_DATE ( 2021, 15, 10 ) ;
#57 = CALENDAR_DATE ( 2021, 15, 10 ) ;
#58 = EDGE_LOOP ( 'NONE', ( #139 ) ) ;
#59 = ORIENTED_EDGE ( 'NONE', *, *, #186, .F. ) ;
#60 = DIRECTION ( 'NONE',  ( -3.491481338843133355E-15, 1.224646799147353207E-16, -1.000000000000000000 ) ) ;
#61 = DIRECTION ( 'NONE',  ( 4.275831445896958607E-31, 1.000000000000000000, 1.224646799147353454E-16 ) ) ;
#62 = APPROVAL_PERSON_ORGANIZATION ( #3, #8, #70 ) ;
#63 = FACE_OUTER_BOUND ( 'NONE', #106, .T. ) ;
#64 = DIRECTION ( 'NONE',  ( 0.0000000000000000000, 1.000000000000000000, 0.0000000000000000000 ) ) ;
#65 = ADVANCED_FACE ( 'NONE', ( #66 ), #12, .T. ) ;
#66 = FACE_OUTER_BOUND ( 'NONE', #107, .T. ) ;
#67 = APPROVAL_PERSON_ORGANIZATION ( #85, #145, #98 ) ;
#68 = CARTESIAN_POINT ( 'NONE',  ( 0.0000000000000000000, 0.0000000000000000000, 0.0000000000000000000 ) ) ;
#69 = APPROVAL_STATUS ( 'not_yet_approved' ) ;
#70 = APPROVAL_ROLE ( '' ) ;
#71 = PRODUCT_DEFINITION_SHAPE ( 'NONE', 'NONE',  #52 ) ;
#72 = PERSON_AND_ORGANIZATION ( #161, #189 ) ;
#73 = LOCAL_TIME ( 15, 34, 3.000000000000000000, #137 ) ;
#74 = PERSON_AND_ORGANIZATION ( #161, #189 ) ;
#75 = AXIS2_PLACEMENT_3D ( 'NONE', #103, #23, #130 ) ;
#76 = ORIENTED_EDGE ( 'NONE', *, *, #186, .T. ) ;
#77 = DIRECTION ( 'NONE',  ( -3.491481338843133355E-15, 1.224646799147353207E-16, -1.000000000000000000 ) ) ;
#78 = CARTESIAN_POINT ( 'NONE',  ( 1.906192921252232855E-15, -6.686024735685322183E-17, 0.5459553513993090634 ) ) ;
#79 = CIRCLE ( 'NONE', #82, 1.499999999999995559 ) ;
#80 = DIRECTION ( 'NONE',  ( -3.491481338843133355E-15, 1.224646799147353207E-16, -1.000000000000000000 ) ) ;
#81 = CARTESIAN_POINT ( 'NONE',  ( 1.606081415867841091E-13, 1.099999999999995648, 46.00000000000000000 ) ) ;
#82 = AXIS2_PLACEMENT_3D ( 'NONE', #112, #13, #188 ) ;
#83 = PERSON_AND_ORGANIZATION_ROLE ( 'design_owner' ) ;
#84 = COORDINATED_UNIVERSAL_TIME_OFFSET ( 1, 0, .AHEAD. ) ;
#85 = PERSON_AND_ORGANIZATION ( #161, #189 ) ;
#86 = CALENDAR_DATE ( 2021, 15, 10 ) ;
#87 = PERSON_AND_ORGANIZATION ( #161, #189 ) ;
#88 = EDGE_LOOP ( 'NONE', ( #154 ) ) ;
#89 = EDGE_LOOP ( 'NONE', ( #26 ) ) ;
#90 = CLOSED_SHELL ( 'NONE', ( #160, #193, #27, #36 ) ) ;
#91 = CARTESIAN_POINT ( 'NONE',  ( 1.592115490512469062E-13, -5.584389404111930487E-15, 45.60000000000000142 ) ) ;
#92 = CC_DESIGN_DATE_AND_TIME_ASSIGNMENT ( #4, #18, ( #95 ) ) ;
#93 = DIRECTION ( 'NONE',  ( 3.491481338843133355E-15, -1.224646799147353207E-16, 1.000000000000000000 ) ) ;
#94 = CARTESIAN_POINT ( 'NONE',  ( 5.586370142149013368E-14, 1.124819836996388416E-32, 16.00000000000000000 ) ) ;
#95 = SECURITY_CLASSIFICATION ( '', '', #135 ) ;
#96 = FACE_OUTER_BOUND ( 'NONE', #183, .T. ) ;
#97 = CYLINDRICAL_SURFACE ( 'NONE', #180, 1.499999999999999112 ) ;
#98 = APPROVAL_ROLE ( '' ) ;
#99 = UNCERTAINTY_MEASURE_WITH_UNIT (LENGTH_MEASURE( 1.000000000000000082E-05 ), #143, 'distance_accuracy_value', 'NONE');
#100 =( GEOMETRIC_REPRESENTATION_CONTEXT ( 3 ) GLOBAL_UNCERTAINTY_ASSIGNED_CONTEXT ( ( #99 ) ) GLOBAL_UNIT_ASSIGNED_CONTEXT ( ( #143, #17, #159 ) ) REPRESENTATION_CONTEXT ( 'NONE', 'WORKASPACE' ) );
#101 = PERSON_AND_ORGANIZATION_ROLE ( 'creator' ) ;
#102 = APPROVAL_DATE_TIME ( #132, #145 ) ;
#103 = CARTESIAN_POINT ( 'NONE',  ( 1.606081415867841091E-13, -5.633375276077824704E-15, 46.00000000000000000 ) ) ;
#104 = APPLICATION_PROTOCOL_DEFINITION ( 'international standard', 'config_control_design', 1994, #50 ) ;
#105 = EDGE_CURVE ( 'NONE', #32, #32, #79, .T. ) ;
#106 = EDGE_LOOP ( 'NONE', ( #44 ) ) ;
#107 = EDGE_LOOP ( 'NONE', ( #141 ) ) ;
#108 = FACE_OUTER_BOUND ( 'NONE', #42, .T. ) ;
#109 = CARTESIAN_POINT ( 'NONE',  ( 5.586370142149013368E-14, 1.124819836996388416E-32, 16.00000000000000000 ) ) ;
#110 = DIRECTION ( 'NONE',  ( -3.491481338843133355E-15, 1.224646799147353207E-16, -1.000000000000000000 ) ) ;
#111 = PRODUCT_DEFINITION_FORMATION_WITH_SPECIFIED_SOURCE ( 'ANY', '', #169, .NOT_KNOWN. ) ;
#112 = CARTESIAN_POINT ( 'NONE',  ( 1.906192921252232855E-15, -6.686024735685322183E-17, 0.5459553513993090634 ) ) ;
#113 = DATE_TIME_ROLE ( 'creation_date' ) ;
#114 = DATE_AND_TIME ( #57, #176 ) ;
#115 = AXIS2_PLACEMENT_3D ( 'NONE', #68, #41, #119 ) ;
#116 = PERSON_AND_ORGANIZATION ( #161, #189 ) ;
#117 = DIRECTION ( 'NONE',  ( -3.491481338843133355E-15, 1.224646799147353207E-16, -1.000000000000000000 ) ) ;
#118 = EDGE_CURVE ( 'NONE', #129, #129, #25, .T. ) ;
#119 = DIRECTION ( 'NONE',  ( 1.000000000000000000, 0.0000000000000000000, 0.0000000000000000000 ) ) ;
#120 = CC_DESIGN_PERSON_AND_ORGANIZATION_ASSIGNMENT ( #116, #179, ( #111 ) ) ;
#121 = AXIS2_PLACEMENT_3D ( 'NONE', #11, #140, #200 ) ;
#122 = CC_DESIGN_PERSON_AND_ORGANIZATION_ASSIGNMENT ( #54, #83, ( #169 ) ) ;
#123 = CC_DESIGN_APPROVAL ( #8, ( #95 ) ) ;
#124 = DIRECTION ( 'NONE',  ( -4.275831445896958607E-31, -1.000000000000000000, -1.224646799147353207E-16 ) ) ;
#125 = VERTEX_POINT ( 'NONE', #53 ) ;
#126 = LOCAL_TIME ( 15, 34, 3.000000000000000000, #84 ) ;
#127 = DIRECTION ( 'NONE',  ( 0.0000000000000000000, 1.000000000000000000, 0.0000000000000000000 ) ) ;
#128 = ADVANCED_BREP_SHAPE_REPRESENTATION ( '29106', ( #156, #22, #115 ), #100 ) ;
#129 = VERTEX_POINT ( 'NONE', #171 ) ;
#130 = DIRECTION ( 'NONE',  ( 0.0000000000000000000, 1.000000000000000000, 0.0000000000000000000 ) ) ;
#131 = LOCAL_TIME ( 15, 34, 3.000000000000000000, #37 ) ;
#132 = DATE_AND_TIME ( #7, #198 ) ;
#133 = CC_DESIGN_PERSON_AND_ORGANIZATION_ASSIGNMENT ( #74, #20, ( #95 ) ) ;
#134 = AXIS2_PLACEMENT_3D ( 'NONE', #16, #110, #194 ) ;
#135 = SECURITY_CLASSIFICATION_LEVEL ( 'unclassified' ) ;
#136 = CC_DESIGN_DATE_AND_TIME_ASSIGNMENT ( #114, #113, ( #52 ) ) ;
#137 = COORDINATED_UNIVERSAL_TIME_OFFSET ( 1, 0, .AHEAD. ) ;
#138 = AXIS2_PLACEMENT_3D ( 'NONE', #91, #175, #127 ) ;
#139 = ORIENTED_EDGE ( 'NONE', *, *, #47, .T. ) ;
#140 = DIRECTION ( 'NONE',  ( -3.491481338843133355E-15, 1.224646799147353207E-16, -1.000000000000000000 ) ) ;
#141 = ORIENTED_EDGE ( 'NONE', *, *, #105, .T. ) ;
#142 = CARTESIAN_POINT ( 'NONE',  ( 0.0000000000000000000, 0.0000000000000000000, 0.0000000000000000000 ) ) ;
#143 =( LENGTH_UNIT ( ) NAMED_UNIT ( * ) SI_UNIT ( .MILLI., .METRE. ) );
#144 = VERTEX_POINT ( 'NONE', #81 ) ;
#145 = APPROVAL ( #148, 'UNSPECIFIED' ) ;
#146 = AXIS2_PLACEMENT_3D ( 'NONE', #78, #93, #48 ) ;
#147 = DATE_AND_TIME ( #199, #126 ) ;
#148 = APPROVAL_STATUS ( 'not_yet_approved' ) ;
#149 = FACE_BOUND ( 'NONE', #58, .T. ) ;
#150 = AXIS2_PLACEMENT_3D ( 'NONE', #33, #80, #64 ) ;
#151 = APPROVAL_STATUS ( 'not_yet_approved' ) ;
#152 = CC_DESIGN_APPROVAL ( #195, ( #111 ) ) ;
#153 = PLANE ( 'NONE',  #121 ) ;
#154 = ORIENTED_EDGE ( 'NONE', *, *, #184, .F. ) ;
#155 = CYLINDRICAL_SURFACE ( 'NONE', #39, 1.499999999999996669 ) ;
#156 = MANIFOLD_SOLID_BREP ( 'Corps-Déplacer/Copier1[1]', #90 ) ;
#157 = FACE_OUTER_BOUND ( 'NONE', #187, .T. ) ;
#158 = CARTESIAN_POINT ( 'NONE',  ( 5.586370142149013368E-14, 1.499999999999995559, 16.00000000000000000 ) ) ;
#159 =( NAMED_UNIT ( * ) SI_UNIT ( $, .STERADIAN. ) SOLID_ANGLE_UNIT ( ) );
#160 = ADVANCED_FACE ( 'NONE', ( #63 ), #174, .F. ) ;
#161 = PERSON ( 'UNSPECIFIED', 'UNSPECIFIED', 'UNSPECIFIED', ('UNSPECIFIED'), ('UNSPECIFIED'), ('UNSPECIFIED') ) ;
#162 = MECHANICAL_CONTEXT ( 'NONE', #50, 'mechanical' ) ;
#163 = PERSON_AND_ORGANIZATION_ROLE ( 'design_supplier' ) ;
#164 = APPLICATION_PROTOCOL_DEFINITION ( 'international standard', 'config_control_design', 1994, #45 ) ;
#165 = ADVANCED_FACE ( 'NONE', ( #177, #96 ), #155, .T. ) ;
#166 = APPROVAL_DATE_TIME ( #147, #195 ) ;
#167 = CC_DESIGN_PERSON_AND_ORGANIZATION_ASSIGNMENT ( #38, #101, ( #52 ) ) ;
#168 = ORIENTED_EDGE ( 'NONE', *, *, #118, .T. ) ;
#169 = PRODUCT ( '29106', '29106', '', ( #162 ) ) ;
#170 = AXIS2_PLACEMENT_3D ( 'NONE', #94, #1, #124 ) ;
#171 = CARTESIAN_POINT ( 'NONE',  ( 1.592115490512469062E-13, 1.499999999999995559, 45.60000000000000142 ) ) ;
#172 = DIRECTION ( 'NONE',  ( -4.275831445896958607E-31, -1.000000000000000000, -1.224646799147353207E-16 ) ) ;
#173 = ADVANCED_FACE ( 'NONE', ( #157 ), #192, .T. ) ;
#174 = PLANE ( 'NONE',  #43 ) ;
#175 = DIRECTION ( 'NONE',  ( -3.491481338843133355E-15, 1.224646799147353207E-16, -1.000000000000000000 ) ) ;
#176 = LOCAL_TIME ( 15, 34, 3.000000000000000000, #24 ) ;
#177 = FACE_OUTER_BOUND ( 'NONE', #46, .T. ) ;
#178 = PRODUCT_RELATED_PRODUCT_CATEGORY ( 'detail', '', ( #169 ) ) ;
#179 = PERSON_AND_ORGANIZATION_ROLE ( 'creator' ) ;
#180 = AXIS2_PLACEMENT_3D ( 'NONE', #202, #60, #61 ) ;
#181 = FACE_OUTER_BOUND ( 'NONE', #30, .T. ) ;
#182 = APPROVAL_DATE_TIME ( #40, #8 ) ;
#183 = EDGE_LOOP ( 'NONE', ( #76 ) ) ;
#184 = EDGE_CURVE ( 'NONE', #125, #125, #185, .T. ) ;
#185 = CIRCLE ( 'NONE', #134, 1.499999999999997335 ) ;
#186 = EDGE_CURVE ( 'NONE', #14, #14, #190, .T. ) ;
#187 = EDGE_LOOP ( 'NONE', ( #59 ) ) ;
#188 = DIRECTION ( 'NONE',  ( 5.135813185032644414E-31, 1.000000000000000000, 1.445602896647343601E-16 ) ) ;
#189 = ORGANIZATION ( 'UNSPECIFIED', 'UNSPECIFIED', '' ) ;
#190 = CIRCLE ( 'NONE', #150, 1.499999999999997335 ) ;
#191 = DIRECTION ( 'NONE',  ( 4.275831445896958607E-31, 1.000000000000000000, 1.224646799147352961E-16 ) ) ;
#192 = PLANE ( 'NONE',  #170 ) ;
#193 = ADVANCED_FACE ( 'NONE', ( #35, #108 ), #97, .T. ) ;
#194 = DIRECTION ( 'NONE',  ( 0.0000000000000000000, 1.000000000000000000, 0.0000000000000000000 ) ) ;
#195 = APPROVAL ( #151, 'UNSPECIFIED' ) ;
#196 = APPROVAL_ROLE ( '' ) ;
#197 = COORDINATED_UNIVERSAL_TIME_OFFSET ( 1, 0, .AHEAD. ) ;
#198 = LOCAL_TIME ( 15, 34, 3.000000000000000000, #197 ) ;
#199 = CALENDAR_DATE ( 2021, 15, 10 ) ;
#200 = DIRECTION ( 'NONE',  ( 4.275831445896958607E-31, 1.000000000000000000, 1.224646799147353207E-16 ) ) ;
#201 = CARTESIAN_POINT ( 'NONE',  ( 1.606081415867841091E-13, -5.633375276077824704E-15, 46.00000000000000000 ) ) ;
#202 = CARTESIAN_POINT ( 'NONE',  ( 0.0000000000000000000, 0.0000000000000000000, 0.0000000000000000000 ) ) ;
#203 = CARTESIAN_POINT ( 'NONE',  ( 1.906192921252233644E-15, 1.499999999999995559, 0.5459553513993092855 ) ) ;
ENDSEC;
END-ISO-10303-21;
