ISO-10303-21;
HEADER;
FILE_DESCRIPTION (( 'STEP AP203' ),
    '1' );
FILE_NAME ('29102.step',
    '2021-11-12T06:57:00',
    ( '' ),
    ( '' ),
    'SwSTEP 2.0',
    'SolidWorks 2019',
    '' );
FILE_SCHEMA (( 'CONFIG_CONTROL_DESIGN' ));
ENDSEC;

DATA;
#1 = PERSON ( 'UNSPECIFIED', 'UNSPECIFIED', 'UNSPECIFIED', ('UNSPECIFIED'), ('UNSPECIFIED'), ('UNSPECIFIED') ) ;
#2 = MANIFOLD_SOLID_BREP ( 'Corps-Déplacer/Copier1[1]', #214 ) ;
#3 = SHAPE_DEFINITION_REPRESENTATION ( #92, #85 ) ;
#4 = EDGE_LOOP ( 'NONE', ( #59 ) ) ;
#5 = APPROVAL_STATUS ( 'not_yet_approved' ) ;
#6 = DATE_TIME_ROLE ( 'classification_date' ) ;
#7 = PRODUCT_DEFINITION_FORMATION_WITH_SPECIFIED_SOURCE ( 'ANY', '', #52, .NOT_KNOWN. ) ;
#8 = COORDINATED_UNIVERSAL_TIME_OFFSET ( 1, 0, .AHEAD. ) ;
#9 = APPLICATION_PROTOCOL_DEFINITION ( 'international standard', 'config_control_design', 1994, #180 ) ;
#10 = DIRECTION ( 'NONE',  ( 3.491481338843133355E-15, -0.0000000000000000000, 1.000000000000000000 ) ) ;
#11 = AXIS2_PLACEMENT_3D ( 'NONE', #34, #43, #26 ) ;
#12 = LOCAL_TIME ( 7, 57, 0.0000000000000000000, #159 ) ;
#13 = DIRECTION ( 'NONE',  ( 0.0000000000000000000, 1.000000000000000000, 0.0000000000000000000 ) ) ;
#14 = DIRECTION ( 'NONE',  ( 3.491481338843133355E-15, -1.224646799147353207E-16, 1.000000000000000000 ) ) ;
#15 = CARTESIAN_POINT ( 'NONE',  ( 4.899999999999999467, 0.0000000000000000000, -1.712181108748742225E-14 ) ) ;
#16 = ADVANCED_FACE ( 'NONE', ( #188 ), #206, .T. ) ;
#17 = EDGE_LOOP ( 'NONE', ( #174 ) ) ;
#18 = DIRECTION ( 'NONE',  ( -3.491481338843133355E-15, 1.224646799147353207E-16, -1.000000000000000000 ) ) ;
#19 =( GEOMETRIC_REPRESENTATION_CONTEXT ( 3 ) GLOBAL_UNCERTAINTY_ASSIGNED_CONTEXT ( ( #189 ) ) GLOBAL_UNIT_ASSIGNED_CONTEXT ( ( #146, #128, #71 ) ) REPRESENTATION_CONTEXT ( 'NONE', 'WORKASPACE' ) );
#20 = CC_DESIGN_DATE_AND_TIME_ASSIGNMENT ( #56, #53, ( #127 ) ) ;
#21 = CALENDAR_DATE ( 2021, 12, 11 ) ;
#22 = ORIENTED_EDGE ( 'NONE', *, *, #41, .F. ) ;
#23 = ORIENTED_EDGE ( 'NONE', *, *, #115, .T. ) ;
#24 = ADVANCED_FACE ( 'NONE', ( #66, #169 ), #112, .T. ) ;
#25 = PERSON_AND_ORGANIZATION_ROLE ( 'classification_officer' ) ;
#26 = DIRECTION ( 'NONE',  ( 0.0000000000000000000, 1.000000000000000000, 0.0000000000000000000 ) ) ;
#27 = PERSON_AND_ORGANIZATION ( #1, #30 ) ;
#28 = PERSON_AND_ORGANIZATION_ROLE ( 'design_owner' ) ;
#29 = DIRECTION ( 'NONE',  ( -3.491481338843133355E-15, 1.224646799147353207E-16, -1.000000000000000000 ) ) ;
#30 = ORGANIZATION ( 'UNSPECIFIED', 'UNSPECIFIED', '' ) ;
#31 = CARTESIAN_POINT ( 'NONE',  ( 2.269462870248037060E-13, -7.960204194457797252E-15, 65.00000000000000000 ) ) ;
#32 = CARTESIAN_POINT ( 'NONE',  ( 3.491481338843133355E-16, 0.0000000000000000000, 0.1000000000000000056 ) ) ;
#33 = ADVANCED_FACE ( 'NONE', ( #118, #36 ), #94, .T. ) ;
#34 = CARTESIAN_POINT ( 'NONE',  ( 6.284666409917640040E-14, -2.204364238465235428E-15, 18.00000000000000000 ) ) ;
#35 = ORIENTED_EDGE ( 'NONE', *, *, #164, .T. ) ;
#36 = FACE_OUTER_BOUND ( 'NONE', #55, .T. ) ;
#37 = APPROVAL ( #101, 'UNSPECIFIED' ) ;
#38 = ORIENTED_EDGE ( 'NONE', *, *, #139, .F. ) ;
#39 = PERSON_AND_ORGANIZATION ( #1, #30 ) ;
#40 = CC_DESIGN_SECURITY_CLASSIFICATION ( #223, ( #7 ) ) ;
#41 = EDGE_CURVE ( 'NONE', #49, #49, #120, .T. ) ;
#42 = DATE_AND_TIME ( #70, #108 ) ;
#43 = DIRECTION ( 'NONE',  ( -3.491481338843133355E-15, 1.224646799147353207E-16, -1.000000000000000000 ) ) ;
#44 = ORIENTED_EDGE ( 'NONE', *, *, #115, .F. ) ;
#45 = DATE_AND_TIME ( #156, #203 ) ;
#46 = FACE_OUTER_BOUND ( 'NONE', #17, .T. ) ;
#47 = FACE_OUTER_BOUND ( 'NONE', #123, .T. ) ;
#48 = CC_DESIGN_APPROVAL ( #145, ( #7 ) ) ;
#49 = VERTEX_POINT ( 'NONE', #89 ) ;
#50 = CIRCLE ( 'NONE', #204, 4.899999999999999467 ) ;
#51 = CARTESIAN_POINT ( 'NONE',  ( -1.068957861474239564E-30, 3.749399456654644020E-32, -3.061616997868383141E-16 ) ) ;
#52 = PRODUCT ( '29102', '29102', '', ( #124 ) ) ;
#53 = DATE_TIME_ROLE ( 'creation_date' ) ;
#54 = APPROVAL_PERSON_ORGANIZATION ( #68, #37, #84 ) ;
#55 = EDGE_LOOP ( 'NONE', ( #83 ) ) ;
#56 = DATE_AND_TIME ( #100, #184 ) ;
#57 = DIRECTION ( 'NONE',  ( 4.275831445896958607E-31, 1.000000000000000000, 1.224646799147353207E-16 ) ) ;
#58 = PERSON_AND_ORGANIZATION ( #1, #30 ) ;
#59 = ORIENTED_EDGE ( 'NONE', *, *, #171, .T. ) ;
#60 = AXIS2_PLACEMENT_3D ( 'NONE', #77, #168, #113 ) ;
#61 = ADVANCED_FACE ( 'NONE', ( #144, #81 ), #147, .T. ) ;
#62 = PLANE ( 'NONE',  #143 ) ;
#63 = CC_DESIGN_PERSON_AND_ORGANIZATION_ASSIGNMENT ( #39, #211, ( #7 ) ) ;
#64 = AXIS2_PLACEMENT_3D ( 'NONE', #32, #199, #150 ) ;
#65 = ORIENTED_EDGE ( 'NONE', *, *, #222, .T. ) ;
#66 = FACE_BOUND ( 'NONE', #172, .T. ) ;
#67 = EDGE_LOOP ( 'NONE', ( #65 ) ) ;
#68 = PERSON_AND_ORGANIZATION ( #1, #30 ) ;
#69 = APPROVAL_PERSON_ORGANIZATION ( #121, #145, #193 ) ;
#70 = CALENDAR_DATE ( 2021, 12, 11 ) ;
#71 =( NAMED_UNIT ( * ) SI_UNIT ( $, .STERADIAN. ) SOLID_ANGLE_UNIT ( ) );
#72 = CIRCLE ( 'NONE', #64, 5.000000000000000000 ) ;
#73 = CARTESIAN_POINT ( 'NONE',  ( -4.731839565957903391E-32, 0.0000000000000000000, -1.355252715606880543E-17 ) ) ;
#74 = ADVANCED_FACE ( 'NONE', ( #212 ), #126, .F. ) ;
#75 = CARTESIAN_POINT ( 'NONE',  ( 6.284666409917640040E-14, -2.204364238465235428E-15, 18.00000000000000000 ) ) ;
#76 = VERTEX_POINT ( 'NONE', #219 ) ;
#77 = CARTESIAN_POINT ( 'NONE',  ( 0.0000000000000000000, 0.0000000000000000000, 0.0000000000000000000 ) ) ;
#78 = CARTESIAN_POINT ( 'NONE',  ( 0.0000000000000000000, 0.0000000000000000000, 0.0000000000000000000 ) ) ;
#79 = EDGE_LOOP ( 'NONE', ( #176 ) ) ;
#80 = COORDINATED_UNIVERSAL_TIME_OFFSET ( 1, 0, .AHEAD. ) ;
#81 = FACE_OUTER_BOUND ( 'NONE', #194, .T. ) ;
#82 = PERSON_AND_ORGANIZATION_ROLE ( 'creator' ) ;
#83 = ORIENTED_EDGE ( 'NONE', *, *, #139, .T. ) ;
#84 = APPROVAL_ROLE ( '' ) ;
#85 = ADVANCED_BREP_SHAPE_REPRESENTATION ( '29102', ( #2, #151, #122 ), #19 ) ;
#86 = DIRECTION ( 'NONE',  ( 4.275831445896959482E-31, 1.000000000000000000, 1.224646799147353207E-16 ) ) ;
#87 = AXIS2_PLACEMENT_3D ( 'NONE', #51, #91, #114 ) ;
#88 = DIRECTION ( 'NONE',  ( -3.491481338843133355E-15, 1.224646799147353207E-16, -1.000000000000000000 ) ) ;
#89 = CARTESIAN_POINT ( 'NONE',  ( 6.284666409917640040E-14, 4.999999999999998224, 18.00000000000000000 ) ) ;
#90 = CC_DESIGN_PERSON_AND_ORGANIZATION_ASSIGNMENT ( #197, #25, ( #223 ) ) ;
#91 = DIRECTION ( 'NONE',  ( -3.491481338843133355E-15, 1.224646799147353207E-16, -1.000000000000000000 ) ) ;
#92 = PRODUCT_DEFINITION_SHAPE ( 'NONE', 'NONE',  #127 ) ;
#93 = AXIS2_PLACEMENT_3D ( 'NONE', #129, #162, #149 ) ;
#94 = CYLINDRICAL_SURFACE ( 'NONE', #60, 5.000000000000000888 ) ;
#95 = CC_DESIGN_PERSON_AND_ORGANIZATION_ASSIGNMENT ( #99, #82, ( #7 ) ) ;
#96 = AXIS2_PLACEMENT_3D ( 'NONE', #208, #117, #153 ) ;
#97 = SECURITY_CLASSIFICATION_LEVEL ( 'unclassified' ) ;
#98 = APPROVAL_PERSON_ORGANIZATION ( #140, #158, #119 ) ;
#99 = PERSON_AND_ORGANIZATION ( #1, #30 ) ;
#100 = CALENDAR_DATE ( 2021, 12, 11 ) ;
#101 = APPROVAL_STATUS ( 'not_yet_approved' ) ;
#102 = PRODUCT_RELATED_PRODUCT_CATEGORY ( 'detail', '', ( #52 ) ) ;
#103 = EDGE_LOOP ( 'NONE', ( #44 ) ) ;
#104 = AXIS2_PLACEMENT_3D ( 'NONE', #202, #105, #86 ) ;
#105 = DIRECTION ( 'NONE',  ( -3.491481338843133355E-15, 1.224646799147353207E-16, -1.000000000000000000 ) ) ;
#106 = FACE_OUTER_BOUND ( 'NONE', #79, .T. ) ;
#107 = VERTEX_POINT ( 'NONE', #148 ) ;
#108 = LOCAL_TIME ( 7, 57, 0.0000000000000000000, #8 ) ;
#109 = DIRECTION ( 'NONE',  ( 0.0000000000000000000, 1.000000000000000000, 0.0000000000000000000 ) ) ;
#110 = CIRCLE ( 'NONE', #132, 5.000000000000000888 ) ;
#111 = DESIGN_CONTEXT ( 'detailed design', #180, 'design' ) ;
#112 = CONICAL_SURFACE ( 'NONE', #96, 4.999999999999994671, 0.7853981633974466137 ) ;
#113 = DIRECTION ( 'NONE',  ( 4.275831445896958607E-31, 1.000000000000000000, 1.224646799147353207E-16 ) ) ;
#114 = DIRECTION ( 'NONE',  ( 4.275831445896958607E-31, 1.000000000000000000, 1.224646799147353207E-16 ) ) ;
#115 = EDGE_CURVE ( 'NONE', #217, #217, #161, .T. ) ;
#116 = CARTESIAN_POINT ( 'NONE',  ( 2.304377683636468267E-13, 2.999519565323701531E-32, 66.00000000000000000 ) ) ;
#117 = DIRECTION ( 'NONE',  ( -3.491481338843133355E-15, 1.224646799147353207E-16, -1.000000000000000000 ) ) ;
#118 = FACE_OUTER_BOUND ( 'NONE', #67, .T. ) ;
#119 = APPROVAL_ROLE ( '' ) ;
#120 = CIRCLE ( 'NONE', #11, 5.000000000000000888 ) ;
#121 = PERSON_AND_ORGANIZATION ( #1, #30 ) ;
#122 = AXIS2_PLACEMENT_3D ( 'NONE', #78, #155, #195 ) ;
#123 = EDGE_LOOP ( 'NONE', ( #35 ) ) ;
#124 = MECHANICAL_CONTEXT ( 'NONE', #167, 'mechanical' ) ;
#125 = COORDINATED_UNIVERSAL_TIME_OFFSET ( 1, 0, .AHEAD. ) ;
#126 = PLANE ( 'NONE',  #133 ) ;
#127 = PRODUCT_DEFINITION ( 'UNKNOWN', '', #7, #111 ) ;
#128 =( NAMED_UNIT ( * ) PLANE_ANGLE_UNIT ( ) SI_UNIT ( $, .RADIAN. ) );
#129 = CARTESIAN_POINT ( 'NONE',  ( 6.284666409917640040E-14, 3.749399456654640735E-32, 18.00000000000000000 ) ) ;
#130 = DIRECTION ( 'NONE',  ( 0.0000000000000000000, 1.000000000000000000, 0.0000000000000000000 ) ) ;
#131 = DIRECTION ( 'NONE',  ( 1.000000000000000000, 0.0000000000000000000, -3.491481338843133750E-15 ) ) ;
#132 = AXIS2_PLACEMENT_3D ( 'NONE', #75, #201, #13 ) ;
#133 = AXIS2_PLACEMENT_3D ( 'NONE', #116, #18, #57 ) ;
#134 = CC_DESIGN_APPROVAL ( #37, ( #223 ) ) ;
#135 = ORIENTED_EDGE ( 'NONE', *, *, #171, .F. ) ;
#136 = APPROVAL_DATE_TIME ( #42, #145 ) ;
#137 = ORIENTED_EDGE ( 'NONE', *, *, #164, .F. ) ;
#138 = DATE_AND_TIME ( #175, #152 ) ;
#139 = EDGE_CURVE ( 'NONE', #107, #107, #72, .T. ) ;
#140 = PERSON_AND_ORGANIZATION ( #1, #30 ) ;
#141 = CC_DESIGN_APPROVAL ( #158, ( #127 ) ) ;
#142 = CARTESIAN_POINT ( 'NONE',  ( 3.491481338843133355E-16, 0.0000000000000000000, 0.1000000000000000056 ) ) ;
#143 = AXIS2_PLACEMENT_3D ( 'NONE', #163, #14, #213 ) ;
#144 = FACE_BOUND ( 'NONE', #4, .T. ) ;
#145 = APPROVAL ( #177, 'UNSPECIFIED' ) ;
#146 =( LENGTH_UNIT ( ) NAMED_UNIT ( * ) SI_UNIT ( .MILLI., .METRE. ) );
#147 = CONICAL_SURFACE ( 'NONE', #220, 5.000000000000000000, 0.7853981633974495002 ) ;
#148 = CARTESIAN_POINT ( 'NONE',  ( 5.000000000000000000, 0.0000000000000000000, 0.09999999999998254729 ) ) ;
#149 = DIRECTION ( 'NONE',  ( -4.275831445896958607E-31, -1.000000000000000000, -1.224646799147353207E-16 ) ) ;
#150 = DIRECTION ( 'NONE',  ( 1.000000000000000000, 0.0000000000000000000, -3.491130995403324278E-15 ) ) ;
#151 = MANIFOLD_SOLID_BREP ( 'Corps-Déplacer/Copier1[2]', #205 ) ;
#152 = LOCAL_TIME ( 7, 57, 0.0000000000000000000, #191 ) ;
#153 = DIRECTION ( 'NONE',  ( 0.0000000000000000000, 1.000000000000000000, 0.0000000000000000000 ) ) ;
#154 = DATE_AND_TIME ( #21, #12 ) ;
#155 = DIRECTION ( 'NONE',  ( 0.0000000000000000000, 0.0000000000000000000, 1.000000000000000000 ) ) ;
#156 = CALENDAR_DATE ( 2021, 12, 11 ) ;
#157 = PERSON_AND_ORGANIZATION_ROLE ( 'creator' ) ;
#158 = APPROVAL ( #5, 'UNSPECIFIED' ) ;
#159 = COORDINATED_UNIVERSAL_TIME_OFFSET ( 1, 0, .AHEAD. ) ;
#160 = VERTEX_POINT ( 'NONE', #15 ) ;
#161 = CIRCLE ( 'NONE', #170, 3.999999999999997335 ) ;
#162 = DIRECTION ( 'NONE',  ( 3.491481338843133355E-15, -1.224646799147353207E-16, 1.000000000000000000 ) ) ;
#163 = CARTESIAN_POINT ( 'NONE',  ( 6.284666409917640040E-14, 3.749399456654640735E-32, 18.00000000000000000 ) ) ;
#164 = EDGE_CURVE ( 'NONE', #215, #215, #192, .T. ) ;
#165 = CARTESIAN_POINT ( 'NONE',  ( 2.269462870248037060E-13, 4.999999999999986677, 65.00000000000000000 ) ) ;
#166 = CC_DESIGN_PERSON_AND_ORGANIZATION_ASSIGNMENT ( #58, #28, ( #52 ) ) ;
#167 = APPLICATION_CONTEXT ( 'configuration controlled 3d designs of mechanical parts and assemblies' ) ;
#168 = DIRECTION ( 'NONE',  ( -3.491481338843133355E-15, 1.224646799147353207E-16, -1.000000000000000000 ) ) ;
#169 = FACE_OUTER_BOUND ( 'NONE', #221, .T. ) ;
#170 = AXIS2_PLACEMENT_3D ( 'NONE', #196, #29, #109 ) ;
#171 = EDGE_CURVE ( 'NONE', #160, #160, #50, .T. ) ;
#172 = EDGE_LOOP ( 'NONE', ( #23 ) ) ;
#173 = APPROVAL_DATE_TIME ( #154, #37 ) ;
#174 = ORIENTED_EDGE ( 'NONE', *, *, #41, .T. ) ;
#175 = CALENDAR_DATE ( 2021, 12, 11 ) ;
#176 = ORIENTED_EDGE ( 'NONE', *, *, #222, .F. ) ;
#177 = APPROVAL_STATUS ( 'not_yet_approved' ) ;
#178 = APPLICATION_PROTOCOL_DEFINITION ( 'international standard', 'config_control_design', 1994, #167 ) ;
#179 = DIRECTION ( 'NONE',  ( 1.000000000000000000, 0.0000000000000000000, -3.491130995403324278E-15 ) ) ;
#180 = APPLICATION_CONTEXT ( 'configuration controlled 3d designs of mechanical parts and assemblies' ) ;
#181 = CARTESIAN_POINT ( 'NONE',  ( 2.304377683636468267E-13, 3.999999999999989786, 66.00000000000000000 ) ) ;
#182 = CYLINDRICAL_SURFACE ( 'NONE', #104, 4.999999999999997335 ) ;
#183 = ADVANCED_FACE ( 'NONE', ( #46 ), #200, .F. ) ;
#184 = LOCAL_TIME ( 7, 57, 0.0000000000000000000, #125 ) ;
#185 = FACE_OUTER_BOUND ( 'NONE', #198, .T. ) ;
#186 = CC_DESIGN_PERSON_AND_ORGANIZATION_ASSIGNMENT ( #27, #157, ( #127 ) ) ;
#187 = AXIS2_PLACEMENT_3D ( 'NONE', #31, #88, #130 ) ;
#188 = FACE_OUTER_BOUND ( 'NONE', #190, .T. ) ;
#189 = UNCERTAINTY_MEASURE_WITH_UNIT (LENGTH_MEASURE( 1.000000000000000082E-05 ), #146, 'distance_accuracy_value', 'NONE');
#190 = EDGE_LOOP ( 'NONE', ( #135 ) ) ;
#191 = COORDINATED_UNIVERSAL_TIME_OFFSET ( 1, 0, .AHEAD. ) ;
#192 = CIRCLE ( 'NONE', #187, 4.999999999999994671 ) ;
#193 = APPROVAL_ROLE ( '' ) ;
#194 = EDGE_LOOP ( 'NONE', ( #38 ) ) ;
#195 = DIRECTION ( 'NONE',  ( 1.000000000000000000, 0.0000000000000000000, 0.0000000000000000000 ) ) ;
#196 = CARTESIAN_POINT ( 'NONE',  ( 2.304377683636468267E-13, -8.082668874372532400E-15, 66.00000000000000000 ) ) ;
#197 = PERSON_AND_ORGANIZATION ( #1, #30 ) ;
#198 = EDGE_LOOP ( 'NONE', ( #22 ) ) ;
#199 = DIRECTION ( 'NONE',  ( 3.491481338843133355E-15, -0.0000000000000000000, 1.000000000000000000 ) ) ;
#200 = PLANE ( 'NONE',  #93 ) ;
#201 = DIRECTION ( 'NONE',  ( -3.491481338843133355E-15, 1.224646799147353207E-16, -1.000000000000000000 ) ) ;
#202 = CARTESIAN_POINT ( 'NONE',  ( 0.0000000000000000000, 0.0000000000000000000, 0.0000000000000000000 ) ) ;
#203 = LOCAL_TIME ( 7, 57, 0.0000000000000000000, #80 ) ;
#204 = AXIS2_PLACEMENT_3D ( 'NONE', #73, #218, #131 ) ;
#205 = CLOSED_SHELL ( 'NONE', ( #33, #207, #61, #16 ) ) ;
#206 = PLANE ( 'NONE',  #87 ) ;
#207 = ADVANCED_FACE ( 'NONE', ( #106 ), #62, .T. ) ;
#208 = CARTESIAN_POINT ( 'NONE',  ( 2.269462870248037060E-13, -7.960204194457797252E-15, 65.00000000000000000 ) ) ;
#209 = CC_DESIGN_DATE_AND_TIME_ASSIGNMENT ( #45, #6, ( #223 ) ) ;
#210 = APPROVAL_DATE_TIME ( #138, #158 ) ;
#211 = PERSON_AND_ORGANIZATION_ROLE ( 'design_supplier' ) ;
#212 = FACE_OUTER_BOUND ( 'NONE', #103, .T. ) ;
#213 = DIRECTION ( 'NONE',  ( -4.275831445896958607E-31, -1.000000000000000000, -1.224646799147353207E-16 ) ) ;
#214 = CLOSED_SHELL ( 'NONE', ( #183, #216, #24, #74 ) ) ;
#215 = VERTEX_POINT ( 'NONE', #165 ) ;
#216 = ADVANCED_FACE ( 'NONE', ( #47, #185 ), #182, .T. ) ;
#217 = VERTEX_POINT ( 'NONE', #181 ) ;
#218 = DIRECTION ( 'NONE',  ( 3.491481338843133355E-15, -0.0000000000000000000, 1.000000000000000000 ) ) ;
#219 = CARTESIAN_POINT ( 'NONE',  ( 6.284666409917640040E-14, 4.999999999999998224, 18.00000000000000000 ) ) ;
#220 = AXIS2_PLACEMENT_3D ( 'NONE', #142, #10, #179 ) ;
#221 = EDGE_LOOP ( 'NONE', ( #137 ) ) ;
#222 = EDGE_CURVE ( 'NONE', #76, #76, #110, .T. ) ;
#223 = SECURITY_CLASSIFICATION ( '', '', #97 ) ;
ENDSEC;
END-ISO-10303-21;
