ISO-10303-21;
HEADER;
FILE_DESCRIPTION (( 'STEP AP203' ),
    '1' );
FILE_NAME ('29101.step',
    '2021-11-12T06:56:59',
    ( '' ),
    ( '' ),
    'SwSTEP 2.0',
    'SolidWorks 2019',
    '' );
FILE_SCHEMA (( 'CONFIG_CONTROL_DESIGN' ));
ENDSEC;

DATA;
#1 = APPROVAL_DATE_TIME ( #91, #152 ) ;
#2 = DESIGN_CONTEXT ( 'detailed design', #26, 'design' ) ;
#3 = AXIS2_PLACEMENT_3D ( 'NONE', #210, #83, #124 ) ;
#4 = ADVANCED_FACE ( 'NONE', ( #112 ), #22, .F. ) ;
#5 = CC_DESIGN_APPROVAL ( #220, ( #165 ) ) ;
#6 = ORIENTED_EDGE ( 'NONE', *, *, #110, .T. ) ;
#7 = EDGE_LOOP ( 'NONE', ( #178 ) ) ;
#8 = DIRECTION ( 'NONE',  ( 0.0000000000000000000, 1.000000000000000000, 0.0000000000000000000 ) ) ;
#9 = FACE_OUTER_BOUND ( 'NONE', #163, .T. ) ;
#10 = ORIENTED_EDGE ( 'NONE', *, *, #202, .T. ) ;
#11 = CC_DESIGN_DATE_AND_TIME_ASSIGNMENT ( #75, #223, ( #165 ) ) ;
#12 = DIRECTION ( 'NONE',  ( 1.000000000000000000, 0.0000000000000000000, -3.493163874476734598E-15 ) ) ;
#13 = CIRCLE ( 'NONE', #21, 4.000000000000000000 ) ;
#14 = AXIS2_PLACEMENT_3D ( 'NONE', #222, #215, #72 ) ;
#15 = DIRECTION ( 'NONE',  ( 4.275831445896958607E-31, 1.000000000000000000, 1.224646799147353207E-16 ) ) ;
#16 = COORDINATED_UNIVERSAL_TIME_OFFSET ( 1, 0, .AHEAD. ) ;
#17 = APPROVAL_STATUS ( 'not_yet_approved' ) ;
#18 = PRODUCT_DEFINITION_SHAPE ( 'NONE', 'NONE',  #88 ) ;
#19 = CALENDAR_DATE ( 2021, 12, 11 ) ;
#20 = PLANE ( 'NONE',  #217 ) ;
#21 = AXIS2_PLACEMENT_3D ( 'NONE', #177, #24, #100 ) ;
#22 = PLANE ( 'NONE',  #46 ) ;
#23 = EDGE_LOOP ( 'NONE', ( #182 ) ) ;
#24 = DIRECTION ( 'NONE',  ( -3.491481338843133355E-15, 1.224646799147353207E-16, -1.000000000000000000 ) ) ;
#25 = APPROVAL_PERSON_ORGANIZATION ( #140, #82, #160 ) ;
#26 = APPLICATION_CONTEXT ( 'configuration controlled 3d designs of mechanical parts and assemblies' ) ;
#27 = ADVANCED_FACE ( 'NONE', ( #196, #164 ), #85, .T. ) ;
#28 = CARTESIAN_POINT ( 'NONE',  ( 5.237222008264700033E-14, 2.999519565323712479E-32, 15.00000000000000000 ) ) ;
#29 = EDGE_CURVE ( 'NONE', #187, #187, #161, .T. ) ;
#30 = UNCERTAINTY_MEASURE_WITH_UNIT (LENGTH_MEASURE( 1.000000000000000082E-05 ), #170, 'distance_accuracy_value', 'NONE');
#31 = PLANE ( 'NONE',  #65 ) ;
#32 = DIRECTION ( 'NONE',  ( 0.0000000000000000000, 0.0000000000000000000, 1.000000000000000000 ) ) ;
#33 = AXIS2_PLACEMENT_3D ( 'NONE', #167, #111, #180 ) ;
#34 = DIRECTION ( 'NONE',  ( 1.000000000000000000, 0.0000000000000000000, 0.0000000000000000000 ) ) ;
#35 = PERSON ( 'UNSPECIFIED', 'UNSPECIFIED', 'UNSPECIFIED', ('UNSPECIFIED'), ('UNSPECIFIED'), ('UNSPECIFIED') ) ;
#36 = FACE_OUTER_BOUND ( 'NONE', #194, .T. ) ;
#37 = ORGANIZATION ( 'UNSPECIFIED', 'UNSPECIFIED', '' ) ;
#38 = CALENDAR_DATE ( 2021, 12, 11 ) ;
#39 = PERSON_AND_ORGANIZATION ( #35, #37 ) ;
#40 = ADVANCED_BREP_SHAPE_REPRESENTATION ( '29101', ( #148, #145, #50 ), #146 ) ;
#41 = CC_DESIGN_PERSON_AND_ORGANIZATION_ASSIGNMENT ( #42, #190, ( #88 ) ) ;
#42 = PERSON_AND_ORGANIZATION ( #35, #37 ) ;
#43 = SECURITY_CLASSIFICATION_LEVEL ( 'unclassified' ) ;
#44 = ORIENTED_EDGE ( 'NONE', *, *, #110, .F. ) ;
#45 = ORIENTED_EDGE ( 'NONE', *, *, #115, .F. ) ;
#46 = AXIS2_PLACEMENT_3D ( 'NONE', #28, #147, #129 ) ;
#47 = ORIENTED_EDGE ( 'NONE', *, *, #151, .F. ) ;
#48 = CC_DESIGN_DATE_AND_TIME_ASSIGNMENT ( #189, #176, ( #88 ) ) ;
#49 = DIRECTION ( 'NONE',  ( -3.491481338843133355E-15, 1.224646799147353207E-16, -1.000000000000000000 ) ) ;
#50 = AXIS2_PLACEMENT_3D ( 'NONE', #185, #32, #34 ) ;
#51 =( NAMED_UNIT ( * ) PLANE_ANGLE_UNIT ( ) SI_UNIT ( $, .RADIAN. ) );
#52 = DIRECTION ( 'NONE',  ( 3.491481338843133355E-15, -0.0000000000000000000, 1.000000000000000000 ) ) ;
#53 = CARTESIAN_POINT ( 'NONE',  ( 3.491481338843133355E-16, 0.0000000000000000000, 0.1000000000000000056 ) ) ;
#54 = VERTEX_POINT ( 'NONE', #198 ) ;
#55 = FACE_BOUND ( 'NONE', #162, .T. ) ;
#56 = APPROVAL_DATE_TIME ( #204, #82 ) ;
#57 = CIRCLE ( 'NONE', #193, 3.999999999999993339 ) ;
#58 = COORDINATED_UNIVERSAL_TIME_OFFSET ( 1, 0, .AHEAD. ) ;
#59 = PERSON_AND_ORGANIZATION_ROLE ( 'design_supplier' ) ;
#60 = PRODUCT_DEFINITION_FORMATION_WITH_SPECIFIED_SOURCE ( 'ANY', '', #108, .NOT_KNOWN. ) ;
#61 = SHAPE_DEFINITION_REPRESENTATION ( #18, #40 ) ;
#62 = APPLICATION_CONTEXT ( 'configuration controlled 3d designs of mechanical parts and assemblies' ) ;
#63 = DIRECTION ( 'NONE',  ( 4.275831445896958607E-31, 1.000000000000000000, 1.224646799147353207E-16 ) ) ;
#64 = EDGE_LOOP ( 'NONE', ( #78 ) ) ;
#65 = AXIS2_PLACEMENT_3D ( 'NONE', #136, #199, #200 ) ;
#66 = ORIENTED_EDGE ( 'NONE', *, *, #29, .T. ) ;
#67 = EDGE_LOOP ( 'NONE', ( #47 ) ) ;
#68 = CARTESIAN_POINT ( 'NONE',  ( 2.094888803305879508E-13, 3.199999999999994404, 59.99999999999998579 ) ) ;
#69 = CIRCLE ( 'NONE', #3, 3.200000000000001954 ) ;
#70 = CARTESIAN_POINT ( 'NONE',  ( 2.066956952595134694E-13, 3.999999999999986233, 59.19999999999998863 ) ) ;
#71 = LOCAL_TIME ( 7, 56, 59.00000000000000000, #191 ) ;
#72 = DIRECTION ( 'NONE',  ( 1.000000000000000000, 0.0000000000000000000, -3.491481338843133355E-15 ) ) ;
#73 = CC_DESIGN_PERSON_AND_ORGANIZATION_ASSIGNMENT ( #107, #174, ( #60 ) ) ;
#74 = PERSON_AND_ORGANIZATION_ROLE ( 'design_owner' ) ;
#75 = DATE_AND_TIME ( #175, #209 ) ;
#76 = COORDINATED_UNIVERSAL_TIME_OFFSET ( 1, 0, .AHEAD. ) ;
#77 = AXIS2_PLACEMENT_3D ( 'NONE', #118, #216, #201 ) ;
#78 = ORIENTED_EDGE ( 'NONE', *, *, #123, .T. ) ;
#79 = CARTESIAN_POINT ( 'NONE',  ( 2.066956952595134694E-13, -7.249909050952328344E-15, 59.19999999999998863 ) ) ;
#80 = CC_DESIGN_PERSON_AND_ORGANIZATION_ASSIGNMENT ( #156, #74, ( #108 ) ) ;
#81 = CARTESIAN_POINT ( 'NONE',  ( 3.491481338843133355E-16, 0.0000000000000000000, 0.1000000000000000056 ) ) ;
#82 = APPROVAL ( #17, 'UNSPECIFIED' ) ;
#83 = DIRECTION ( 'NONE',  ( -3.491481338843133355E-15, 1.224646799147353207E-16, -1.000000000000000000 ) ) ;
#84 = CARTESIAN_POINT ( 'NONE',  ( 5.237222008264700033E-14, -1.836970198721029589E-15, 15.00000000000000000 ) ) ;
#85 = CONICAL_SURFACE ( 'NONE', #127, 3.999999999999993339, 0.7853981633974458365 ) ;
#86 = CARTESIAN_POINT ( 'NONE',  ( 0.0000000000000000000, 0.0000000000000000000, 0.0000000000000000000 ) ) ;
#87 = CC_DESIGN_PERSON_AND_ORGANIZATION_ASSIGNMENT ( #206, #59, ( #60 ) ) ;
#88 = PRODUCT_DEFINITION ( 'UNKNOWN', '', #60, #2 ) ;
#89 = CC_DESIGN_APPROVAL ( #152, ( #60 ) ) ;
#90 = APPROVAL_STATUS ( 'not_yet_approved' ) ;
#91 = DATE_AND_TIME ( #92, #181 ) ;
#92 = CALENDAR_DATE ( 2021, 12, 11 ) ;
#93 = APPROVAL_DATE_TIME ( #121, #220 ) ;
#94 = PRODUCT_RELATED_PRODUCT_CATEGORY ( 'detail', '', ( #108 ) ) ;
#95 = CARTESIAN_POINT ( 'NONE',  ( 2.094888803305879761E-13, 8.737655774268964850E-31, 59.99999999999999289 ) ) ;
#96 = CIRCLE ( 'NONE', #113, 4.000000000000000000 ) ;
#97 = EDGE_LOOP ( 'NONE', ( #6 ) ) ;
#98 = EDGE_LOOP ( 'NONE', ( #179 ) ) ;
#99 = CIRCLE ( 'NONE', #14, 3.899999999999999911 ) ;
#100 = DIRECTION ( 'NONE',  ( 0.0000000000000000000, 1.000000000000000000, 0.0000000000000000000 ) ) ;
#101 = EDGE_LOOP ( 'NONE', ( #66 ) ) ;
#102 = DIRECTION ( 'NONE',  ( 0.0000000000000000000, 1.000000000000000000, 0.0000000000000000000 ) ) ;
#103 = FACE_OUTER_BOUND ( 'NONE', #7, .T. ) ;
#104 = MECHANICAL_CONTEXT ( 'NONE', #62, 'mechanical' ) ;
#105 = CYLINDRICAL_SURFACE ( 'NONE', #221, 4.000000000000000000 ) ;
#106 = LOCAL_TIME ( 7, 56, 59.00000000000000000, #58 ) ;
#107 = PERSON_AND_ORGANIZATION ( #35, #37 ) ;
#108 = PRODUCT ( '29101', '29101', '', ( #104 ) ) ;
#109 = APPLICATION_PROTOCOL_DEFINITION ( 'international standard', 'config_control_design', 1994, #26 ) ;
#110 = EDGE_CURVE ( 'NONE', #219, #219, #69, .T. ) ;
#111 = DIRECTION ( 'NONE',  ( -3.491481338843133355E-15, 1.224646799147353207E-16, -1.000000000000000000 ) ) ;
#112 = FACE_OUTER_BOUND ( 'NONE', #101, .T. ) ;
#113 = AXIS2_PLACEMENT_3D ( 'NONE', #81, #128, #192 ) ;
#114 = FACE_OUTER_BOUND ( 'NONE', #98, .T. ) ;
#115 = EDGE_CURVE ( 'NONE', #169, #169, #96, .T. ) ;
#116 = VERTEX_POINT ( 'NONE', #70 ) ;
#117 = APPLICATION_PROTOCOL_DEFINITION ( 'international standard', 'config_control_design', 1994, #62 ) ;
#118 = CARTESIAN_POINT ( 'NONE',  ( -8.551662891793915461E-31, 2.999519565323715216E-32, -2.449293598294706414E-16 ) ) ;
#119 = AXIS2_PLACEMENT_3D ( 'NONE', #53, #52, #12 ) ;
#120 = COORDINATED_UNIVERSAL_TIME_OFFSET ( 1, 0, .AHEAD. ) ;
#121 = DATE_AND_TIME ( #173, #106 ) ;
#122 = ADVANCED_FACE ( 'NONE', ( #114, #150 ), #195, .T. ) ;
#123 = EDGE_CURVE ( 'NONE', #168, #168, #13, .T. ) ;
#124 = DIRECTION ( 'NONE',  ( 0.0000000000000000000, 1.000000000000000000, 0.0000000000000000000 ) ) ;
#125 = EDGE_LOOP ( 'NONE', ( #212 ) ) ;
#126 = DIRECTION ( 'NONE',  ( -3.491481338843133355E-15, 1.224646799147353207E-16, -1.000000000000000000 ) ) ;
#127 = AXIS2_PLACEMENT_3D ( 'NONE', #79, #126, #214 ) ;
#128 = DIRECTION ( 'NONE',  ( 3.491481338843133355E-15, -0.0000000000000000000, 1.000000000000000000 ) ) ;
#129 = DIRECTION ( 'NONE',  ( -4.275831445896958607E-31, -1.000000000000000000, -1.224646799147353207E-16 ) ) ;
#130 = ADVANCED_FACE ( 'NONE', ( #9 ), #20, .F. ) ;
#131 = CC_DESIGN_PERSON_AND_ORGANIZATION_ASSIGNMENT ( #143, #208, ( #165 ) ) ;
#132 = CC_DESIGN_SECURITY_CLASSIFICATION ( #165, ( #60 ) ) ;
#133 = CARTESIAN_POINT ( 'NONE',  ( 5.237222008264700033E-14, 3.999999999999998224, 15.00000000000000000 ) ) ;
#134 = FACE_OUTER_BOUND ( 'NONE', #23, .T. ) ;
#135 = ADVANCED_FACE ( 'NONE', ( #134 ), #31, .T. ) ;
#136 = CARTESIAN_POINT ( 'NONE',  ( 5.237222008264700033E-14, 2.999519565323712479E-32, 15.00000000000000000 ) ) ;
#137 = APPROVAL_PERSON_ORGANIZATION ( #39, #152, #158 ) ;
#138 = CARTESIAN_POINT ( 'NONE',  ( 5.237222008264700033E-14, 3.999999999999998224, 15.00000000000000000 ) ) ;
#139 = APPROVAL_STATUS ( 'not_yet_approved' ) ;
#140 = PERSON_AND_ORGANIZATION ( #35, #37 ) ;
#141 = CONICAL_SURFACE ( 'NONE', #119, 4.000000000000000000, 0.7853981633974495002 ) ;
#142 = APPROVAL_ROLE ( '' ) ;
#143 = PERSON_AND_ORGANIZATION ( #35, #37 ) ;
#144 = ADVANCED_FACE ( 'NONE', ( #55, #36 ), #141, .T. ) ;
#145 = MANIFOLD_SOLID_BREP ( 'Corps-Déplacer/Copier1[2]', #205 ) ;
#146 =( GEOMETRIC_REPRESENTATION_CONTEXT ( 3 ) GLOBAL_UNCERTAINTY_ASSIGNED_CONTEXT ( ( #30 ) ) GLOBAL_UNIT_ASSIGNED_CONTEXT ( ( #170, #51, #183 ) ) REPRESENTATION_CONTEXT ( 'NONE', 'WORKASPACE' ) );
#147 = DIRECTION ( 'NONE',  ( 3.491481338843133355E-15, -1.224646799147353207E-16, 1.000000000000000000 ) ) ;
#148 = MANIFOLD_SOLID_BREP ( 'Corps-Déplacer/Copier1[1]', #154 ) ;
#149 = EDGE_LOOP ( 'NONE', ( #213 ) ) ;
#150 = FACE_OUTER_BOUND ( 'NONE', #125, .T. ) ;
#151 = EDGE_CURVE ( 'NONE', #116, #116, #57, .T. ) ;
#152 = APPROVAL ( #90, 'UNSPECIFIED' ) ;
#153 = PLANE ( 'NONE',  #77 ) ;
#154 = CLOSED_SHELL ( 'NONE', ( #4, #122, #27, #130 ) ) ;
#155 = FACE_OUTER_BOUND ( 'NONE', #149, .T. ) ;
#156 = PERSON_AND_ORGANIZATION ( #35, #37 ) ;
#157 = CC_DESIGN_APPROVAL ( #82, ( #88 ) ) ;
#158 = APPROVAL_ROLE ( '' ) ;
#159 = ADVANCED_FACE ( 'NONE', ( #184, #103 ), #105, .T. ) ;
#160 = APPROVAL_ROLE ( '' ) ;
#161 = CIRCLE ( 'NONE', #188, 4.000000000000000000 ) ;
#162 = EDGE_LOOP ( 'NONE', ( #10 ) ) ;
#163 = EDGE_LOOP ( 'NONE', ( #44 ) ) ;
#164 = FACE_OUTER_BOUND ( 'NONE', #67, .T. ) ;
#165 = SECURITY_CLASSIFICATION ( '', '', #43 ) ;
#166 = ADVANCED_FACE ( 'NONE', ( #155 ), #153, .T. ) ;
#167 = CARTESIAN_POINT ( 'NONE',  ( 0.0000000000000000000, 0.0000000000000000000, 0.0000000000000000000 ) ) ;
#168 = VERTEX_POINT ( 'NONE', #133 ) ;
#169 = VERTEX_POINT ( 'NONE', #186 ) ;
#170 =( LENGTH_UNIT ( ) NAMED_UNIT ( * ) SI_UNIT ( .MILLI., .METRE. ) );
#171 = CARTESIAN_POINT ( 'NONE',  ( 2.066956952595134694E-13, -7.249909050952328344E-15, 59.19999999999998863 ) ) ;
#172 = LOCAL_TIME ( 7, 56, 59.00000000000000000, #120 ) ;
#173 = CALENDAR_DATE ( 2021, 12, 11 ) ;
#174 = PERSON_AND_ORGANIZATION_ROLE ( 'creator' ) ;
#175 = CALENDAR_DATE ( 2021, 12, 11 ) ;
#176 = DATE_TIME_ROLE ( 'creation_date' ) ;
#177 = CARTESIAN_POINT ( 'NONE',  ( 5.237222008264700033E-14, -1.836970198721029589E-15, 15.00000000000000000 ) ) ;
#178 = ORIENTED_EDGE ( 'NONE', *, *, #115, .T. ) ;
#179 = ORIENTED_EDGE ( 'NONE', *, *, #151, .T. ) ;
#180 = DIRECTION ( 'NONE',  ( 4.275831445896957731E-31, 1.000000000000000000, 1.224646799147353207E-16 ) ) ;
#181 = LOCAL_TIME ( 7, 56, 59.00000000000000000, #76 ) ;
#182 = ORIENTED_EDGE ( 'NONE', *, *, #123, .F. ) ;
#183 =( NAMED_UNIT ( * ) SI_UNIT ( $, .STERADIAN. ) SOLID_ANGLE_UNIT ( ) );
#184 = FACE_OUTER_BOUND ( 'NONE', #64, .T. ) ;
#185 = CARTESIAN_POINT ( 'NONE',  ( 0.0000000000000000000, 0.0000000000000000000, 0.0000000000000000000 ) ) ;
#186 = CARTESIAN_POINT ( 'NONE',  ( 4.000000000000000000, 0.0000000000000000000, 0.09999999999998603062 ) ) ;
#187 = VERTEX_POINT ( 'NONE', #138 ) ;
#188 = AXIS2_PLACEMENT_3D ( 'NONE', #84, #49, #8 ) ;
#189 = DATE_AND_TIME ( #38, #172 ) ;
#190 = PERSON_AND_ORGANIZATION_ROLE ( 'creator' ) ;
#191 = COORDINATED_UNIVERSAL_TIME_OFFSET ( 1, 0, .AHEAD. ) ;
#192 = DIRECTION ( 'NONE',  ( 1.000000000000000000, 0.0000000000000000000, -3.493163874476734598E-15 ) ) ;
#193 = AXIS2_PLACEMENT_3D ( 'NONE', #171, #203, #102 ) ;
#194 = EDGE_LOOP ( 'NONE', ( #45 ) ) ;
#195 = CYLINDRICAL_SURFACE ( 'NONE', #33, 3.999999999999996447 ) ;
#196 = FACE_BOUND ( 'NONE', #97, .T. ) ;
#197 = APPROVAL_PERSON_ORGANIZATION ( #207, #220, #142 ) ;
#198 = CARTESIAN_POINT ( 'NONE',  ( 3.899999999999999911, 0.0000000000000000000, -1.363032974864428889E-14 ) ) ;
#199 = DIRECTION ( 'NONE',  ( 3.491481338843133355E-15, -1.224646799147353207E-16, 1.000000000000000000 ) ) ;
#200 = DIRECTION ( 'NONE',  ( -4.275831445896958607E-31, -1.000000000000000000, -1.224646799147353207E-16 ) ) ;
#201 = DIRECTION ( 'NONE',  ( 4.275831445896958607E-31, 1.000000000000000000, 1.224646799147353207E-16 ) ) ;
#202 = EDGE_CURVE ( 'NONE', #54, #54, #99, .T. ) ;
#203 = DIRECTION ( 'NONE',  ( -3.491481338843133355E-15, 1.224646799147353207E-16, -1.000000000000000000 ) ) ;
#204 = DATE_AND_TIME ( #19, #71 ) ;
#205 = CLOSED_SHELL ( 'NONE', ( #159, #135, #144, #166 ) ) ;
#206 = PERSON_AND_ORGANIZATION ( #35, #37 ) ;
#207 = PERSON_AND_ORGANIZATION ( #35, #37 ) ;
#208 = PERSON_AND_ORGANIZATION_ROLE ( 'classification_officer' ) ;
#209 = LOCAL_TIME ( 7, 56, 59.00000000000000000, #16 ) ;
#210 = CARTESIAN_POINT ( 'NONE',  ( 2.094888803305879508E-13, -7.347880794884116778E-15, 59.99999999999998579 ) ) ;
#211 = DIRECTION ( 'NONE',  ( -3.491481338843133355E-15, 1.224646799147353207E-16, -1.000000000000000000 ) ) ;
#212 = ORIENTED_EDGE ( 'NONE', *, *, #29, .F. ) ;
#213 = ORIENTED_EDGE ( 'NONE', *, *, #202, .F. ) ;
#214 = DIRECTION ( 'NONE',  ( 0.0000000000000000000, 1.000000000000000000, 0.0000000000000000000 ) ) ;
#215 = DIRECTION ( 'NONE',  ( 3.491481338843133355E-15, -0.0000000000000000000, 1.000000000000000000 ) ) ;
#216 = DIRECTION ( 'NONE',  ( -3.491481338843133355E-15, 1.224646799147353207E-16, -1.000000000000000000 ) ) ;
#217 = AXIS2_PLACEMENT_3D ( 'NONE', #95, #211, #63 ) ;
#218 = DIRECTION ( 'NONE',  ( -3.491481338843133355E-15, 1.224646799147353207E-16, -1.000000000000000000 ) ) ;
#219 = VERTEX_POINT ( 'NONE', #68 ) ;
#220 = APPROVAL ( #139, 'UNSPECIFIED' ) ;
#221 = AXIS2_PLACEMENT_3D ( 'NONE', #86, #218, #15 ) ;
#222 = CARTESIAN_POINT ( 'NONE',  ( -4.731839565957903391E-32, 0.0000000000000000000, -1.355252715606880543E-17 ) ) ;
#223 = DATE_TIME_ROLE ( 'classification_date' ) ;
ENDSEC;
END-ISO-10303-21;
