ISO-10303-21;
HEADER;
FILE_DESCRIPTION (( 'STEP AP203' ),
    '1' );
FILE_NAME ('29100.step',
    '2021-11-12T06:56:59',
    ( '' ),
    ( '' ),
    'SwSTEP 2.0',
    'SolidWorks 2019',
    '' );
FILE_SCHEMA (( 'CONFIG_CONTROL_DESIGN' ));
ENDSEC;

DATA;
#1 = DIRECTION ( 'NONE',  ( 3.491481338843133355E-15, -0.0000000000000000000, 1.000000000000000000 ) ) ;
#2 = CALENDAR_DATE ( 2021, 12, 11 ) ;
#3 = ORIENTED_EDGE ( 'NONE', *, *, #12, .T. ) ;
#4 = PERSON_AND_ORGANIZATION_ROLE ( 'creator' ) ;
#5 = APPROVAL ( #198, 'UNSPECIFIED' ) ;
#6 = PERSON_AND_ORGANIZATION ( #160, #122 ) ;
#7 = EDGE_LOOP ( 'NONE', ( #184 ) ) ;
#8 = AXIS2_PLACEMENT_3D ( 'NONE', #148, #94, #173 ) ;
#9 = CLOSED_SHELL ( 'NONE', ( #124, #42, #149, #108 ) ) ;
#10 = FACE_BOUND ( 'NONE', #93, .T. ) ;
#11 = APPROVAL_PERSON_ORGANIZATION ( #6, #32, #147 ) ;
#12 = EDGE_CURVE ( 'NONE', #90, #90, #217, .T. ) ;
#13 = FACE_OUTER_BOUND ( 'NONE', #41, .T. ) ;
#14 = EDGE_LOOP ( 'NONE', ( #128 ) ) ;
#15 = AXIS2_PLACEMENT_3D ( 'NONE', #86, #180, #104 ) ;
#16 = AXIS2_PLACEMENT_3D ( 'NONE', #65, #174, #79 ) ;
#17 = FACE_OUTER_BOUND ( 'NONE', #7, .T. ) ;
#18 = CARTESIAN_POINT ( 'NONE',  ( -6.413747168845438786E-31, 2.249639673992786412E-32, -1.836970198721029934E-16 ) ) ;
#19 = COORDINATED_UNIVERSAL_TIME_OFFSET ( 1, 0, .AHEAD. ) ;
#20 = CIRCLE ( 'NONE', #210, 3.000000000000000000 ) ;
#21 = CARTESIAN_POINT ( 'NONE',  ( 3.491481338843133355E-14, 2.999999999999998668, 10.00000000000000000 ) ) ;
#22 = AXIS2_PLACEMENT_3D ( 'NONE', #172, #1, #186 ) ;
#23 = EDGE_LOOP ( 'NONE', ( #145 ) ) ;
#24 = ORIENTED_EDGE ( 'NONE', *, *, #12, .F. ) ;
#25 = COORDINATED_UNIVERSAL_TIME_OFFSET ( 1, 0, .AHEAD. ) ;
#26 = ORIENTED_EDGE ( 'NONE', *, *, #205, .T. ) ;
#27 = PERSON_AND_ORGANIZATION ( #160, #122 ) ;
#28 = CONICAL_SURFACE ( 'NONE', #194, 3.000000000000000000, 0.7853981633974495002 ) ;
#29 = FACE_OUTER_BOUND ( 'NONE', #137, .T. ) ;
#30 = EDGE_CURVE ( 'NONE', #179, #179, #136, .T. ) ;
#31 = PRODUCT_DEFINITION_FORMATION_WITH_SPECIFIED_SOURCE ( 'ANY', '', #51, .NOT_KNOWN. ) ;
#32 = APPROVAL ( #43, 'UNSPECIFIED' ) ;
#33 = ORIENTED_EDGE ( 'NONE', *, *, #30, .F. ) ;
#34 = FACE_OUTER_BOUND ( 'NONE', #165, .T. ) ;
#35 = DIRECTION ( 'NONE',  ( -3.491481338843133355E-15, 1.224646799147353207E-16, -1.000000000000000000 ) ) ;
#36 = EDGE_LOOP ( 'NONE', ( #167 ) ) ;
#37 = CARTESIAN_POINT ( 'NONE',  ( 3.491481338843133355E-14, -1.224646799147353256E-15, 10.00000000000000000 ) ) ;
#38 = ADVANCED_FACE ( 'NONE', ( #156 ), #222, .T. ) ;
#39 = APPROVAL_PERSON_ORGANIZATION ( #176, #5, #159 ) ;
#40 = DATE_TIME_ROLE ( 'creation_date' ) ;
#41 = EDGE_LOOP ( 'NONE', ( #3 ) ) ;
#42 = ADVANCED_FACE ( 'NONE', ( #13, #34 ), #151, .T. ) ;
#43 = APPROVAL_STATUS ( 'not_yet_approved' ) ;
#44 = AXIS2_PLACEMENT_3D ( 'NONE', #135, #190, #46 ) ;
#45 = EDGE_LOOP ( 'NONE', ( #181 ) ) ;
#46 = DIRECTION ( 'NONE',  ( 1.000000000000000000, 0.0000000000000000000, -3.492034497213728733E-15 ) ) ;
#47 = DIRECTION ( 'NONE',  ( -3.491481338843133355E-15, 1.224646799147353207E-16, -1.000000000000000000 ) ) ;
#48 = FACE_OUTER_BOUND ( 'NONE', #99, .T. ) ;
#49 = CARTESIAN_POINT ( 'NONE',  ( 3.000000000000000444, 0.0000000000000000000, 0.09999999999998952782 ) ) ;
#50 = MECHANICAL_CONTEXT ( 'NONE', #61, 'mechanical' ) ;
#51 = PRODUCT ( '29100', '29100', '', ( #50 ) ) ;
#52 = CC_DESIGN_PERSON_AND_ORGANIZATION_ASSIGNMENT ( #166, #218, ( #223 ) ) ;
#53 = ADVANCED_BREP_SHAPE_REPRESENTATION ( '29100', ( #72, #64, #15 ), #144 ) ;
#54 = AXIS2_PLACEMENT_3D ( 'NONE', #62, #47, #98 ) ;
#55 = VERTEX_POINT ( 'NONE', #21 ) ;
#56 = VERTEX_POINT ( 'NONE', #161 ) ;
#57 = LOCAL_TIME ( 7, 56, 59.00000000000000000, #178 ) ;
#58 = APPROVAL_DATE_TIME ( #169, #32 ) ;
#59 = COORDINATED_UNIVERSAL_TIME_OFFSET ( 1, 0, .AHEAD. ) ;
#60 = CARTESIAN_POINT ( 'NONE',  ( 3.491481338843133355E-16, 0.0000000000000000000, 0.1000000000000000056 ) ) ;
#61 = APPLICATION_CONTEXT ( 'configuration controlled 3d designs of mechanical parts and assemblies' ) ;
#62 = CARTESIAN_POINT ( 'NONE',  ( 1.745740669421566678E-13, 1.799711739194221740E-32, 50.00000000000000000 ) ) ;
#63 = DIRECTION ( 'NONE',  ( -4.275831445896958607E-31, -1.000000000000000000, -1.224646799147353207E-16 ) ) ;
#64 = MANIFOLD_SOLID_BREP ( 'Corps-Déplacer/Copier1[2]', #203 ) ;
#65 = CARTESIAN_POINT ( 'NONE',  ( 0.0000000000000000000, 0.0000000000000000000, 0.0000000000000000000 ) ) ;
#66 = CC_DESIGN_DATE_AND_TIME_ASSIGNMENT ( #215, #216, ( #223 ) ) ;
#67 = PLANE ( 'NONE',  #8 ) ;
#68 = PERSON_AND_ORGANIZATION ( #160, #122 ) ;
#69 = DATE_AND_TIME ( #2, #57 ) ;
#70 = CARTESIAN_POINT ( 'NONE',  ( 2.899999999999999911, 0.0000000000000000000, -1.013884840980115396E-14 ) ) ;
#71 = DIRECTION ( 'NONE',  ( 0.0000000000000000000, 1.000000000000000000, 0.0000000000000000000 ) ) ;
#72 = MANIFOLD_SOLID_BREP ( 'Corps-Déplacer/Copier1[1]', #9 ) ;
#73 = AXIS2_PLACEMENT_3D ( 'NONE', #82, #201, #115 ) ;
#74 = PRODUCT_DEFINITION ( 'UNKNOWN', '', #31, #189 ) ;
#75 = DIRECTION ( 'NONE',  ( 1.000000000000000000, 0.0000000000000000000, -3.492034497213728733E-15 ) ) ;
#76 = APPROVAL_PERSON_ORGANIZATION ( #107, #116, #101 ) ;
#77 = EDGE_LOOP ( 'NONE', ( #24 ) ) ;
#78 = CIRCLE ( 'NONE', #177, 2.400000000000002132 ) ;
#79 = DIRECTION ( 'NONE',  ( 4.275831445896958607E-31, 1.000000000000000000, 1.224646799147353207E-16 ) ) ;
#80 = AXIS2_PLACEMENT_3D ( 'NONE', #18, #204, #175 ) ;
#81 = ADVANCED_FACE ( 'NONE', ( #48 ), #187, .T. ) ;
#82 = CARTESIAN_POINT ( 'NONE',  ( 3.491481338843133355E-14, -1.224646799147353256E-15, 10.00000000000000000 ) ) ;
#83 = CC_DESIGN_PERSON_AND_ORGANIZATION_ASSIGNMENT ( #89, #4, ( #74 ) ) ;
#84 = LOCAL_TIME ( 7, 56, 59.00000000000000000, #59 ) ;
#85 = DIRECTION ( 'NONE',  ( 0.0000000000000000000, 1.000000000000000000, 0.0000000000000000000 ) ) ;
#86 = CARTESIAN_POINT ( 'NONE',  ( 0.0000000000000000000, 0.0000000000000000000, 0.0000000000000000000 ) ) ;
#87 = AXIS2_PLACEMENT_3D ( 'NONE', #207, #114, #110 ) ;
#88 = ORIENTED_EDGE ( 'NONE', *, *, #30, .T. ) ;
#89 = PERSON_AND_ORGANIZATION ( #160, #122 ) ;
#90 = VERTEX_POINT ( 'NONE', #213 ) ;
#91 = CC_DESIGN_PERSON_AND_ORGANIZATION_ASSIGNMENT ( #143, #129, ( #31 ) ) ;
#92 = PERSON_AND_ORGANIZATION_ROLE ( 'design_supplier' ) ;
#93 = EDGE_LOOP ( 'NONE', ( #88 ) ) ;
#94 = DIRECTION ( 'NONE',  ( 3.491481338843133355E-15, -1.224646799147353207E-16, 1.000000000000000000 ) ) ;
#95 = CALENDAR_DATE ( 2021, 12, 11 ) ;
#96 = CC_DESIGN_SECURITY_CLASSIFICATION ( #223, ( #31 ) ) ;
#97 = ORIENTED_EDGE ( 'NONE', *, *, #205, .F. ) ;
#98 = DIRECTION ( 'NONE',  ( 4.275831445896958607E-31, 1.000000000000000000, 1.224646799147353207E-16 ) ) ;
#99 = EDGE_LOOP ( 'NONE', ( #33 ) ) ;
#100 = DIRECTION ( 'NONE',  ( -3.491481338843133355E-15, 1.224646799147353207E-16, -1.000000000000000000 ) ) ;
#101 = APPROVAL_ROLE ( '' ) ;
#102 = CIRCLE ( 'NONE', #44, 3.000000000000000000 ) ;
#103 =( NAMED_UNIT ( * ) PLANE_ANGLE_UNIT ( ) SI_UNIT ( $, .RADIAN. ) );
#104 = DIRECTION ( 'NONE',  ( 1.000000000000000000, 0.0000000000000000000, 0.0000000000000000000 ) ) ;
#105 = CC_DESIGN_APPROVAL ( #5, ( #74 ) ) ;
#106 = EDGE_LOOP ( 'NONE', ( #199 ) ) ;
#107 = PERSON_AND_ORGANIZATION ( #160, #122 ) ;
#108 = ADVANCED_FACE ( 'NONE', ( #118 ), #220, .F. ) ;
#109 = SECURITY_CLASSIFICATION_LEVEL ( 'unclassified' ) ;
#110 = DIRECTION ( 'NONE',  ( 0.0000000000000000000, 1.000000000000000000, 0.0000000000000000000 ) ) ;
#111 = APPROVAL_DATE_TIME ( #69, #116 ) ;
#112 = ADVANCED_FACE ( 'NONE', ( #10, #17 ), #28, .T. ) ;
#113 = CONICAL_SURFACE ( 'NONE', #221, 3.000000000000001776, 0.7853981633974453924 ) ;
#114 = DIRECTION ( 'NONE',  ( -3.491481338843133355E-15, 1.224646799147353207E-16, -1.000000000000000000 ) ) ;
#115 = DIRECTION ( 'NONE',  ( 0.0000000000000000000, 1.000000000000000000, 0.0000000000000000000 ) ) ;
#116 = APPROVAL ( #193, 'UNSPECIFIED' ) ;
#117 = FACE_OUTER_BOUND ( 'NONE', #106, .T. ) ;
#118 = FACE_OUTER_BOUND ( 'NONE', #36, .T. ) ;
#119 = APPLICATION_PROTOCOL_DEFINITION ( 'international standard', 'config_control_design', 1994, #61 ) ;
#120 = APPROVAL_DATE_TIME ( #141, #5 ) ;
#121 = DATE_AND_TIME ( #182, #214 ) ;
#122 = ORGANIZATION ( 'UNSPECIFIED', 'UNSPECIFIED', '' ) ;
#123 = EDGE_CURVE ( 'NONE', #192, #192, #102, .T. ) ;
#124 = ADVANCED_FACE ( 'NONE', ( #29 ), #67, .F. ) ;
#125 = PERSON_AND_ORGANIZATION_ROLE ( 'design_owner' ) ;
#126 = CC_DESIGN_APPROVAL ( #32, ( #223 ) ) ;
#127 = CALENDAR_DATE ( 2021, 12, 11 ) ;
#128 = ORIENTED_EDGE ( 'NONE', *, *, #134, .F. ) ;
#129 = PERSON_AND_ORGANIZATION_ROLE ( 'creator' ) ;
#130 = SHAPE_DEFINITION_REPRESENTATION ( #183, #53 ) ;
#131 = ADVANCED_FACE ( 'NONE', ( #117, #191 ), #139, .T. ) ;
#132 = PRODUCT_RELATED_PRODUCT_CATEGORY ( 'detail', '', ( #51 ) ) ;
#133 = DIRECTION ( 'NONE',  ( 4.275831445896959482E-31, 1.000000000000000000, 1.224646799147353207E-16 ) ) ;
#134 = EDGE_CURVE ( 'NONE', #55, #55, #185, .T. ) ;
#135 = CARTESIAN_POINT ( 'NONE',  ( 3.491481338843133355E-16, 0.0000000000000000000, 0.1000000000000000056 ) ) ;
#136 = CIRCLE ( 'NONE', #22, 2.899999999999999911 ) ;
#137 = EDGE_LOOP ( 'NONE', ( #26 ) ) ;
#138 = CARTESIAN_POINT ( 'NONE',  ( 0.0000000000000000000, 0.0000000000000000000, 0.0000000000000000000 ) ) ;
#139 = CYLINDRICAL_SURFACE ( 'NONE', #152, 3.000000000000000000 ) ;
#140 = APPLICATION_PROTOCOL_DEFINITION ( 'international standard', 'config_control_design', 1994, #146 ) ;
#141 = DATE_AND_TIME ( #162, #155 ) ;
#142 = DIRECTION ( 'NONE',  ( -3.491481338843133355E-15, 1.224646799147353207E-16, -1.000000000000000000 ) ) ;
#143 = PERSON_AND_ORGANIZATION ( #160, #122 ) ;
#144 =( GEOMETRIC_REPRESENTATION_CONTEXT ( 3 ) GLOBAL_UNCERTAINTY_ASSIGNED_CONTEXT ( ( #171 ) ) GLOBAL_UNIT_ASSIGNED_CONTEXT ( ( #208, #103, #209 ) ) REPRESENTATION_CONTEXT ( 'NONE', 'WORKASPACE' ) );
#145 = ORIENTED_EDGE ( 'NONE', *, *, #123, .T. ) ;
#146 = APPLICATION_CONTEXT ( 'configuration controlled 3d designs of mechanical parts and assemblies' ) ;
#147 = APPROVAL_ROLE ( '' ) ;
#148 = CARTESIAN_POINT ( 'NONE',  ( 3.491481338843133355E-14, 2.249639673992784496E-32, 10.00000000000000000 ) ) ;
#149 = ADVANCED_FACE ( 'NONE', ( #153, #188 ), #113, .T. ) ;
#150 = CC_DESIGN_DATE_AND_TIME_ASSIGNMENT ( #121, #40, ( #74 ) ) ;
#151 = CYLINDRICAL_SURFACE ( 'NONE', #16, 3.000000000000000888 ) ;
#152 = AXIS2_PLACEMENT_3D ( 'NONE', #138, #35, #133 ) ;
#153 = FACE_BOUND ( 'NONE', #45, .T. ) ;
#154 = CARTESIAN_POINT ( 'NONE',  ( 1.724791781388508004E-13, -6.049755187787925154E-15, 49.39999999999999858 ) ) ;
#155 = LOCAL_TIME ( 7, 56, 59.00000000000000000, #19 ) ;
#156 = FACE_OUTER_BOUND ( 'NONE', #14, .T. ) ;
#157 = CC_DESIGN_PERSON_AND_ORGANIZATION_ASSIGNMENT ( #68, #125, ( #51 ) ) ;
#158 = DIRECTION ( 'NONE',  ( 0.0000000000000000000, 1.000000000000000000, 0.0000000000000000000 ) ) ;
#159 = APPROVAL_ROLE ( '' ) ;
#160 = PERSON ( 'UNSPECIFIED', 'UNSPECIFIED', 'UNSPECIFIED', ('UNSPECIFIED'), ('UNSPECIFIED'), ('UNSPECIFIED') ) ;
#161 = CARTESIAN_POINT ( 'NONE',  ( 1.745740669421566678E-13, 2.399999999999995914, 50.00000000000000000 ) ) ;
#162 = CALENDAR_DATE ( 2021, 12, 11 ) ;
#163 = DIRECTION ( 'NONE',  ( -3.491481338843133355E-15, 1.224646799147353207E-16, -1.000000000000000000 ) ) ;
#164 = COORDINATED_UNIVERSAL_TIME_OFFSET ( 1, 0, .AHEAD. ) ;
#165 = EDGE_LOOP ( 'NONE', ( #97 ) ) ;
#166 = PERSON_AND_ORGANIZATION ( #160, #122 ) ;
#167 = ORIENTED_EDGE ( 'NONE', *, *, #168, .F. ) ;
#168 = EDGE_CURVE ( 'NONE', #56, #56, #78, .T. ) ;
#169 = DATE_AND_TIME ( #95, #84 ) ;
#170 = CC_DESIGN_APPROVAL ( #116, ( #31 ) ) ;
#171 = UNCERTAINTY_MEASURE_WITH_UNIT (LENGTH_MEASURE( 1.000000000000000082E-05 ), #208, 'distance_accuracy_value', 'NONE');
#172 = CARTESIAN_POINT ( 'NONE',  ( -4.731839565957903391E-32, 0.0000000000000000000, -1.355252715606880543E-17 ) ) ;
#173 = DIRECTION ( 'NONE',  ( -4.275831445896958607E-31, -1.000000000000000000, -1.224646799147353207E-16 ) ) ;
#174 = DIRECTION ( 'NONE',  ( -3.491481338843133355E-15, 1.224646799147353207E-16, -1.000000000000000000 ) ) ;
#175 = DIRECTION ( 'NONE',  ( 4.275831445896958607E-31, 1.000000000000000000, 1.224646799147353207E-16 ) ) ;
#176 = PERSON_AND_ORGANIZATION ( #160, #122 ) ;
#177 = AXIS2_PLACEMENT_3D ( 'NONE', #211, #163, #71 ) ;
#178 = COORDINATED_UNIVERSAL_TIME_OFFSET ( 1, 0, .AHEAD. ) ;
#179 = VERTEX_POINT ( 'NONE', #70 ) ;
#180 = DIRECTION ( 'NONE',  ( 0.0000000000000000000, 0.0000000000000000000, 1.000000000000000000 ) ) ;
#181 = ORIENTED_EDGE ( 'NONE', *, *, #168, .T. ) ;
#182 = CALENDAR_DATE ( 2021, 12, 11 ) ;
#183 = PRODUCT_DEFINITION_SHAPE ( 'NONE', 'NONE',  #74 ) ;
#184 = ORIENTED_EDGE ( 'NONE', *, *, #123, .F. ) ;
#185 = CIRCLE ( 'NONE', #73, 3.000000000000000000 ) ;
#186 = DIRECTION ( 'NONE',  ( 1.000000000000000000, 0.0000000000000000000, -3.491481338843132961E-15 ) ) ;
#187 = PLANE ( 'NONE',  #80 ) ;
#188 = FACE_OUTER_BOUND ( 'NONE', #77, .T. ) ;
#189 = DESIGN_CONTEXT ( 'detailed design', #146, 'design' ) ;
#190 = DIRECTION ( 'NONE',  ( 3.491481338843133355E-15, -0.0000000000000000000, 1.000000000000000000 ) ) ;
#191 = FACE_OUTER_BOUND ( 'NONE', #23, .T. ) ;
#192 = VERTEX_POINT ( 'NONE', #49 ) ;
#193 = APPROVAL_STATUS ( 'not_yet_approved' ) ;
#194 = AXIS2_PLACEMENT_3D ( 'NONE', #60, #202, #75 ) ;
#195 = VERTEX_POINT ( 'NONE', #196 ) ;
#196 = CARTESIAN_POINT ( 'NONE',  ( 3.491481338843133355E-14, 2.999999999999998668, 10.00000000000000000 ) ) ;
#197 = LOCAL_TIME ( 7, 56, 59.00000000000000000, #164 ) ;
#198 = APPROVAL_STATUS ( 'not_yet_approved' ) ;
#199 = ORIENTED_EDGE ( 'NONE', *, *, #134, .T. ) ;
#200 = CC_DESIGN_PERSON_AND_ORGANIZATION_ASSIGNMENT ( #27, #92, ( #31 ) ) ;
#201 = DIRECTION ( 'NONE',  ( -3.491481338843133355E-15, 1.224646799147353207E-16, -1.000000000000000000 ) ) ;
#202 = DIRECTION ( 'NONE',  ( 3.491481338843133355E-15, -0.0000000000000000000, 1.000000000000000000 ) ) ;
#203 = CLOSED_SHELL ( 'NONE', ( #131, #38, #112, #81 ) ) ;
#204 = DIRECTION ( 'NONE',  ( -3.491481338843133355E-15, 1.224646799147353207E-16, -1.000000000000000000 ) ) ;
#205 = EDGE_CURVE ( 'NONE', #195, #195, #20, .T. ) ;
#206 = CARTESIAN_POINT ( 'NONE',  ( 3.491481338843133355E-14, 2.249639673992784496E-32, 10.00000000000000000 ) ) ;
#207 = CARTESIAN_POINT ( 'NONE',  ( 1.724791781388508004E-13, -6.049755187787925154E-15, 49.39999999999999858 ) ) ;
#208 =( LENGTH_UNIT ( ) NAMED_UNIT ( * ) SI_UNIT ( .MILLI., .METRE. ) );
#209 =( NAMED_UNIT ( * ) SI_UNIT ( $, .STERADIAN. ) SOLID_ANGLE_UNIT ( ) );
#210 = AXIS2_PLACEMENT_3D ( 'NONE', #37, #142, #158 ) ;
#211 = CARTESIAN_POINT ( 'NONE',  ( 1.745740669421566678E-13, -6.123233995736766085E-15, 50.00000000000000000 ) ) ;
#212 = AXIS2_PLACEMENT_3D ( 'NONE', #206, #219, #63 ) ;
#213 = CARTESIAN_POINT ( 'NONE',  ( 1.724791781388508004E-13, 2.999999999999995559, 49.39999999999999858 ) ) ;
#214 = LOCAL_TIME ( 7, 56, 59.00000000000000000, #25 ) ;
#215 = DATE_AND_TIME ( #127, #197 ) ;
#216 = DATE_TIME_ROLE ( 'classification_date' ) ;
#217 = CIRCLE ( 'NONE', #87, 3.000000000000001776 ) ;
#218 = PERSON_AND_ORGANIZATION_ROLE ( 'classification_officer' ) ;
#219 = DIRECTION ( 'NONE',  ( 3.491481338843133355E-15, -1.224646799147353207E-16, 1.000000000000000000 ) ) ;
#220 = PLANE ( 'NONE',  #54 ) ;
#221 = AXIS2_PLACEMENT_3D ( 'NONE', #154, #100, #85 ) ;
#222 = PLANE ( 'NONE',  #212 ) ;
#223 = SECURITY_CLASSIFICATION ( '', '', #109 ) ;
ENDSEC;
END-ISO-10303-21;
